Oops, an error
Loading. Please wait.

Ultrathin - The Sweeney Bass Tab

199 views 1 this week
no commentswrite comment
1 2 3 4 5
please rate
add to favorites
launch autoscroll
font size
0
reset
guitar tuner
Autoscroll
slow
fast
+/-
esc
set tempo
stop
Help us to improve Ultimate-Guitar.com Take our survey!
×
Author
Difficulty
intermediate
Sweenage Kicks

written bu Sidley / Mendez

intro is sirens

nee naaa nee naaa

G-|------------------------------------------|
D-|------------------------------------------|
A-|------------------------------------------|        X 4
E-|05-5-5-5--03-3-3-3--02-2-2-2--01-1-0-0----|

G-|------------------------------------------|
D-|------------------------------------------|
A-|05-5-5-5--03-3-3-3--02-2-2-2--01-1-0-0----|        X 2
E-|------------------------------------------|

G-|--------------------------------------------------|
D-|--------------------------------------------------|
A-|--------------------------------------------------|       X 6 approx
E-|055--033--011-33-55-------------------------------|

G-|------------------------------------------|
D-|------------------------------------------|
A-|------------------------------------------|       X 4 gradualy gets faster
E-|05-5-5-5--03-3-3-3--02-2-2-2--01-1-0-0----|       after each one

G-|------------------------------------------|
D-|------------------------------------------|
A-|------------------------------------------|       X 2
E-|33333------222----111--0------------------|

"Oi"

 sirens fade.............
Suggest correction
Give kudos to tab author, rate the tab!
1 2 3 4 5
comments
print report bad tab
guest
You may want to rate the tab now too:
select rating
Please do not post tabs as comments. Select "correction" instead!