Oops, an error
Loading. Please wait.

Undefined - Death And Destruction Tab

49 views 1 this week
no commentswrite comment
1 2 3 4 5
please rate
add to favorites
launch autoscroll
font size
0
reset
how to read this tab
guitar tuner
Autoscroll
slow
fast
+/-
esc
set tempo
stop
Help us to improve Ultimate-Guitar.com Take our survey!
×
Author
-------------------------------------------------------------------------------
                                               Death and Destruction - Undefined
-------------------------------------------------------------------------------
Tabbed by: Cody Scott
Email: scottc5@nku.edu

Tuning: Standard

Intro:
e|---------------------------------------------------------------------------|
B|---------------------------------------------------------------------------|
G|---------------------------------------------------------------------------|
D|-----------------2---------------------------------------------------------|
A|-----3--2~-------2--3--5---------------------------------------------------|
E|-\0---------2h3--0--------x--x--3--2---------------------------------------|

e|---------------------------------------------------------------------------|
B|---------------------------------------------------------------------------|
G|----5--4-------------------------5--5--7-----------------------------------|
D|-2--5--4--------4--------4/5--2--5--5--7--------------5--4--3--------------|
A|-2--3--2--------4--------4/5--2--3--3--5--------------5--4--3--------------|
E|-0--------x--x--2--x--x--2/3--0-----------x--x--x--x--3--2--1--------------|


Bridge (Play twice):
e|---------------------------------------------------------------------------|
B|---------------------------------------------------------------------------|
G|---------------------------------------------------------------------------|
D|-------5--------4-----4--------------4/5--5--------------------------------|
A|-------5--------4-----4--------------4/5--5--------------------------------|
E|-x--x--3--x--x--2--x--2--x--x--x--x--2/3--3--------------------------------|

e|---------------------------------------------------------------------------|
B|---------------------------------------------------------------------------|
G|---------------------------------------------------------------------------|
D|-------5--------4-----4-------------8--7\----------------------------------|
A|-------5--------4-----4-------------8--7\----------------------------------|
E|-x--x--3--x--x--2--x--2--x--xxxxxx--6--5\----------------------------------|

e|---------------------------------------------------------------------------|
B|---------------------------------------------------------------------------|
G|---------------------------------------------------------------------------|
D|-------5--------4-----4--------------4/5--5--------------------------------|
A|-------5--------4-----4--------------4/5--5--------------------------------|
E|-x--x--3--x--x--2--x--2--x--x--x--x--2/3--3--------------------------------|

e|---------------------------------------------------------------------------|
B|---------------------------------------------------------------------------|
G|---------------------------------------------------------------------------|
D|-5--------4--------7--------5--------4--4--4/5-----------------------------|
A|-5--------4--------7--------5--------4--4--4/5-----------------------------|
E|-3--xxxx--2--xxxx--5--xxxx--3--xxxx--2--2--2/3-----------------------------|


Verse (1):
e|---------------------------------------------------------------------------|
B|---------------------------------------------------------------------------|
G|-----------------5---------------4-----------------------------------------|
D|-2---------------5---------------4-------------------------------------4/5-|
A|-2---------------3---------------2-------------------------------------4/5-|
E|-0---------------------------------------------------------------------2/3-|
 1: Bombs bursting in the sky, like the night of a thousand knives.
 2: Buildings crumble to the ground, as sirens blare without a sound.

e|---------------------------------------------------------------------------|
B|---------------------------------------------------------------------------|
G|-----------------5---------------7-----------------------------------------|
D|-2---------------5---------------7--------------------------5--4--3--------|
A|-2---------------3---------------5--------------------------5--4--3--------|
E|-0----------------------------------------------------x--x--3--2--1--------|
 1: People killing for their lives, but it ain't right, it ain't right.
 2: The ghost of reasons past decays, as the clock counts down its final days.

e|---------------------------------------------------------------------------|
B|---------------------------------------------------------------------------|
G|-----------------5---------------4-----------------------------------------|
D|-2---------------5---------------4-------------------------------------4/5-|
A|-2---------------3---------------2-------------------------------------4/5-|
E|-0---------------------------------------------------------------------2/3-|
 1: Bullets flying in the air, ain't nothing but a bloodstained stare,
 2: Running from the firefight, try to make it all turn right,

e|---------------------------------------------------------------------------|
B|---------------------------------------------------------------------------|
G|-----------------5---------------7-----------------------------------------|
D|-2---------------5---------------7--------------------------5--4-----------|
A|-2---------------3---------------5--------------------------5--4-----------|
E|-0----------------------------------------------------------3--2-----------|
 1: Howls and crying in the night, but there's no stopping this fucking fight.
 2: But the battlemania rages on, bowing to the destruction.


Chorus:
e|---------------------------------------------------------------------------|
B|---------------------------------------------------------------------------|
G|---------------------------------------------------------------------------|
D|-2----2----x--x---4----4----x--x---5----5----x--x---4----4---5-------------|
A|-2----2----x--x---4----4----x--x---5----5----x--x---4----4---5-------------|
E|-0----0----x--x---2----2----x--x---3----3----x--x---2----2---3-------------|
    It's creeping up, it's coming out, who will stop this civil drought?

e|---------------------------------------------------------------------------|
B|---------------------------------------------------------------------------|
G|---------------------------------------------------------------------------|
D|-2----2----x--x---5----5----x--x---7----7\----x--x--x--5---4---3-----------|
A|-2----2----x--x---5----5----x--x---7----7\----x--x--x--5---4---3-----------|
E|-0----0----x--x---3----3----x--x---5----5\----x--x--x--3---2---1-----------|
    As time stops it rages on, no end in sight, it's death and destruction.


Bridge (Play once)

Verse (2)

Chorus

Bridge (Play once)

Solo:
e|---------------------------------------------------------------------------|
B|--------------------------------9------------------------------------------|
G|-------------7-----7--9--9b11-pb11b9--7h9p7-----7--7-----------------------|
D|-2--/9--7h9-----9----------------------------9--------9--7--7--------------|
A|-2-------------------------------------------------------------10--9-------|
E|-0-------------------------------------------------------------------------|

e|---------------------------------------------------------------------------|
B|---------------------------------------------------------------------------|
G|----------------------------7----------------------------------------------|
D|-9------------10-----------------------------------------------------------|
A|----10--9--7------10--9--7-----10--9--7--5--4------------------------------|
E|-----------------------------------------3--2------------------------------|

e|---------------------------------------------------------------------------|
B|---------------------------------------------------------------------------|
G|---------------------------------------------------------------------------|
D|---------------------------------------------------------------------------|
A|----------------------------7h9h10-7h9h10-7h9h10-7h9p7---------------------|
E|-7h9h10-7h9h10-7h9h10-7h9p7------------------------------------------------|

e|--------------7h8h10-7h8/10-10--10--10--10--10--12~------------------------|
B|-7h8h10-7h8p7--------------------------------------------------------------|
G|---------------------------------------------------------------------------|
D|---------------------------------------------------------------------------|
A|---------------------------------------------------------------------------|
E|---------------------------------------------------------------------------|
(Pick slide down then slide down again with finger)


Chorus

Outro:
(Basically the same as the first bridge, only differences are the last few notes 
after each time through)
e|---------------------------------------------------------------------------|
B|---------------------------------------------------------------------------|
G|---------------------------------------------------------------------------|
D|-------5--------4-----4--------------4/5--5--------------------------------|
A|-------5--------4-----4--------------4/5--5--------------------------------|
E|-x--x--3--x--x--2--x--2--x--x--x--x--2/3--3--------------------------------|

e|---------------------------------------------------------------------------|
B|---------------------------------------------------------------------------|
G|---------------------------------------------------------------------------|
D|-------5--------4-----4-------------8--7\----------------------------------|
A|-------5--------4-----4-------------8--7\----------------------------------|
E|-x--x--3--x--x--2--x--2--x--xxxxxx--6--5\----------------------------------|

e|---------------------------------------------------------------------------|
B|---------------------------------------------------------------------------|
G|---------------------------------------------------------------------------|
D|-------5--------4-----4--------------4/5--5--------------------------------|
A|-------5--------4-----4--------------4/5--5--------------------------------|
E|-x--x--3--x--x--2--x--2--x--x--x--x--2/3--3--------------------------------|

e|---------------------------------------------------------------------------|
B|---------------------------------------------------------------------------|
G|---------------------------------------------------------------------------|
D|-5--------4--------7--------5--------5--4--3-------------------------------|
A|-5--------4--------7--------5--------5--4--3-------------------------------|
E|-3--xxxx--2--xxxx--5--xxxx--3--xxxx--3--2--1-------------------------------|
                                       Death and destruction!

e|---------------------------------------------------------------------------|
B|---------------------------------------------------------------------------|
G|---------------------------------------------------------------------------|
D|-------5--------4-----4--------------4/5--5--------------------------------|
A|-------5--------4-----4--------------4/5--5--------------------------------|
E|-x--x--3--x--x--2--x--2--x--x--x--x--2/3--3--------------------------------|

e|---------------------------------------------------------------------------|
B|---------------------------------------------------------------------------|
G|---------------------------------------------------------------------------|
D|-------5--------4-----4-------------8--7\----------------------------------|
A|-------5--------4-----4-------------8--7\----------------------------------|
E|-x--x--3--x--x--2--x--2--x--xxxxxx--6--5\----------------------------------|

e|---------------------------------------------------------------------------|
B|---------------------------------------------------------------------------|
G|---------------------------------------------------------------------------|
D|-------5--------4-----4--------------4/5--5--------------------------------|
A|-------5--------4-----4--------------4/5--5--------------------------------|
E|-x--x--3--x--x--2--x--2--x--x--x--x--2/3--3--------------------------------|

e|---------------------------------------------------------------------------|
B|---------------------------------------------------------------------------|
G|---------------------------------------------------------------------------|
D|-5--------4--------7--------5--------4--4--4/5--2--------------------------|
A|-5--------4--------7--------5--------4--4--4/5--2--------------------------|
E|-3--xxxx--2--xxxx--5--xxxx--3--xxxx--2--2--2/3--0--------------------------|
                                                  (Hold last note)


************************************

| /   slide up
| \   slide down
| h   hammer-on
| p   pull-off
| ~   vibrato
| +   harmonic
| x   Mute note
| b   Bend
| pb  Pre-bend
| br  Bend release
| pbr Pre-bend release
| brb Bend release bend

************************************
Suggest correction
Give kudos to tab author, rate the tab!
1 2 3 4 5
comments
print report bad tab
guest
You may want to rate the tab now too:
select rating
Please do not post tabs as comments. Select "correction" instead!