Oops, an error
Loading. Please wait.

Undefined - Stable Insanity Scatterbrain Tab

52 views 1 this week
no commentswrite comment
1 2 3 4 5
please rate
add to favorites
launch autoscroll
font size
0
reset
how to read this tab
guitar tuner
Tab Pro tools
  • play this tab
  • loop segment
  • change instrument
  • show fretboard
  • metronome
×
Best way to learn
"Undefined - Stable Insanity Scatterbrain"
Autoscroll
slow
fast
+/-
esc
set tempo
stop
Contributor
-------------------------------------------------------------------------------
                                         Stable Insanity \Scatterbrain/ - Undefined
-------------------------------------------------------------------------------
Tabbed by: Cody Scott
Email: scottc5@nku.edu

Tuning: Standard

Intro:
e|---------------------------------------------------------------------------|
B|---------------------------------------------------------------------------|
G|-2-------------------------------------------------------------------------|
D|-2-------------------------------------------------------------------------|
A|-0-------------------------------------------------------------------------|
E|---------------------------------------------------------------------------|
    (Hold note/Improvise)


Main riff (Play twice):
e|---------------------------------------------------------------------------|
B|---------------------------------------------------------------------------|
G|-2-----------------4h5--2-----------------4h5------------------------------|
D|-2-----------------4h5--2-----------------4h5------------------------------|
A|-0--x--x--x--x--x-------0--x--x--x--x--x-----------------------------------|
E|---------------------------------------------------------------------------|

e|---------------------------------------------------------------------------|
B|---------------------------------------------------------------------------|
G|-7-----------------7--5--7--4--5-------------------------------------------|
D|-7-----------------7--5--7--4--5-------------------------------------------|
A|-5--x--x--x--x--x--5-------------------------------------------------------|
E|---------------------------------------------------------------------------|

e|---------------------------------------------------------------------------|
B|---------------------------------------------------------------------------|
G|-2-----------------4h5--2-----------------4h5--7----7--6--5----------------|
D|-2-----------------4h5--2-----------------4h5--7----7--6--5--7--6--5-------|
A|-0--x--x--x--x--x-------0--x--x--x--x--x-------5-------------7--6--5-------|
E|---------------------------------------------------------------------------|


Verse (1):
e|---------------------------------------------------------------------------|
B|---------------------------------------------------------------------------|
G|-7--6--5-------------------------------------------------------------------|
D|-7--6--5--7--6--5--2------------------/7-----------------------------------|
A|----------7--6--5--2------------------/7-----------------------------------|
E|-------------------0----xxxxxxxxxxxx--/5-----------------------------------|

e|---------------------------------------------------------------------------|
B|---------------------------------------------------------------------------|
G|---------------------------------------------------------------------------|
D|-7-7-7-7-7-7-7-7-7-7-7-7-7-7-7-7--5-5-5-5-5-5-5-5-5-5-5-5-5-5-5-5----------|
A|-7-7-7-7-7-7-7-7-7-7-7-7-7-7-7-7--5-5-5-5-5-5-5-5-5-5-5-5-5-5-5-5----------|
E|-5-5-5-5-5-5-5-5-5-5-5-5-5-5-5-5--3-3-3-3-3-3-3-3-3-3-3-3-3-3-3-3----------|
 1: Someone help me find my mind, it's scattered with the sands of time.
 2: Sing the tune so stupidly, I'm throwing down conformity.
 3: Lost in space and out of time, guilty of my mindless crime.

e|---------------------------------------------------------------------------|
B|---------------------------------------------------------------------------|
G|---------------------------------------7--6--5-----------------------------|
D|-3-3-3-3-3-3-3-3-3-3-3-3-3-3-3-3--2----7--6--5--7--6--5--------------------|
A|-3-3-3-3-3-3-3-3-3-3-3-3-3-3-3-3--2-------------7--6--5--------------------|
E|-1-1-1-1-1-1-1-1-1-1-1-1-1-1-1-1--0----------------------------------------|
 1: Craziness, insanity, what's happening to me?
 2: The master of reality holds no room for me.
 3: Left and right, I look endlessly, nothing else is there for me.

e|---------------------------------------------------------------------------|
B|---------------------------------------------------------------------------|
G|---------------------------------------------------------------------------|
D|-7-7-7-7-7-7-7-7-7-7-7-7-7-7-7-7--5-5-5-5-5-5-5-5-5-5-5-5-5-5-5-5----------|
A|-7-7-7-7-7-7-7-7-7-7-7-7-7-7-7-7--5-5-5-5-5-5-5-5-5-5-5-5-5-5-5-5----------|
E|-5-5-5-5-5-5-5-5-5-5-5-5-5-5-5-5--3-3-3-3-3-3-3-3-3-3-3-3-3-3-3-3----------|
 1: No one else can understand, I'm snapping like a rubber band.
 2: Kill the brain and fuck my mind, my thoughts are dead but my body's fine.
 3: I feel my head slip away, my tortured thoughts are here to stay.

e|---------------------------------------------------------------------------|
B|---------------------------------------------------------------------------|
G|---------------------------------------------------------------------------|
D|-3-3-3-3-3-3-3-3-3-3-3-3-3-3-3-3--2----------------------------------/7----|
A|-3-3-3-3-3-3-3-3-3-3-3-3-3-3-3-3--2----------------------------------/7----|
E|-1-1-1-1-1-1-1-1-1-1-1-1-1-1-1-1--0----------------------------------/5----|
 1: Empty thoughts flow through the sea, that space where my brain used to be.
 2: My eyes are shut but I can see I'm lost in my insanity.
 3: Who is there? I cannot see that which stands in front of me.


Chorus:
e|---------------------------------------------------------------------------|
B|---------------------------------------------------------------------------|
G|---------------------------------------------------------------------------|
D|-7--7--7-7--7-7-7-7-7-7-7--5--5--5-5--5-5-5--------------------------------|
A|-7--7--7-7--7-7-7-7-7-7-7--5--5--5-5--5-5-5-------3h5----------------------|
E|-5--5--5-5--5-5-5-5-5-5-5--3--3--3-3--3-3-3--3h5---------------------------|
    Please try to save my distraught mind.

e|---------------------------------------------------------------------------|
B|---------------------------------------------------------------------------|
G|-5--5--5-5--5-5-5-5-5-5-5--4--4---7--6--5----------------------------------|
D|-5--5--5-5--5-5-5-5-5-5-5--4--4---7--6--5--7--6--5-------------------------|
A|-3--3--3-3--3-3-3-3-3-3-3--2--2------------7--6--5-------------------------|
E|---------------------------------------------------------------------------|
    I'm quickly running out of time.

e|---------------------------------------------------------------------------|
B|---------------------------------------------------------------------------|
G|---------------------------------------------------------------------------|
D|-7--7--7-7--7-7-7-7-7-7-7--5--5--5-5--5-5-5-5-5-5-5------------------------|
A|-7--7--7-7--7-7-7-7-7-7-7--5--5--5-5--5-5-5-5-5-5-5------------------------|
E|-5--5--5-5--5-5-5-5-5-5-5--3--3--3-3--3-3-3-3-3-3-3------------------------|
    This void I see, I can't break free,

e|---------------------------------------------------------------------------|
B|---------------------------------------------------------------------------|
G|--------------------------------------------7--6--5-----------2------------|
D|-3--3-3--3-3-3-3-3-3-3-3-3-3-3---2----------7--6--5--7--6--5--2------------|
A|-3--3-3--3-3-3-3-3-3-3-3-3-3-3---2-------------------7--6--5--0------------|
E|-1--1-1--1-1-1-1-1-1-1-1-1-1-1---0-----------------------------------------|
    In my stable insanity.                                       Scatterbrain!


Main riff (Play once)

Solo 1

Verse (2)

Chorus

Bridge:
e|---------------------------------------------------------------------------|
B|---------------------------------------------------------------------------|
G|---------------------------------------------------------------------------|
D|-------2--------0--------3--------2--------0h2-----------------------------|
A|-x--x-----x--x-----x--x-----x--x-----x--x----------------------------------|
E|---------------------------------------------------------------------------|

e|---------------------------------------------------------------------------|
B|---------------------------------------------------------------------------|
G|---------------------------------------------------------------------------|
D|-------2--------0--------3--------2--3--5----------------------------------|
A|-x--x-----x--x-----x--x-----x--x-------------------------------------------|
E|---------------------------------------------------------------------------|

e|---------------------------------------------------------------------------|
B|---------------------------------------------------------------------------|
G|---------------------------------------------------------------------------|
D|-------2--------0--------3--------2--------0h2-----------------------------|
A|-x--x-----x--x-----x--x-----x--x-----x--x----------------------------------|
E|---------------------------------------------------------------------------|

e|---------------------------------------------------------------------------|
B|---------------------------------------------------------------------------|
G|-------------------------7--6--5-------------------------------------------|
D|-------2--------0--------7--6--5--7--6--5----------------------------------|
A|-x--x-----x--x-----x--x-----------7--6--5----------------------------------|
E|---------------------------------------------------------------------------|

e|---------------------------------------------------------------------------|
B|---------------------------------------------------------------------------|
G|---------------------------------------------------------------------------|
D|---------------------------------------------------------------------------|
A|-------3-----2h3-----5-----3-----2--2h3p2--0-------------------------------|
E|-x--x-----x-------x-----x-----x--------------------------------------------|

e|---------------------------------------------------------------------------|
B|---------------------------------------------------------------------------|
G|---------------------------------------------------------------------------|
D|---------------------------------------------------------------------------|
A|-------3-----2h3-----5-----3-----7--6--5-----------------------------------|
E|-x--x-----x-------x-----x-----x--------------------------------------------|

e|---------------------------------------------------------------------------|
B|---------------------------------------------------------------------------|
G|---------------------------------------------------------------------------|
D|---------------------------------------------------------------------------|
A|-------3-----2h3-----5-----3-----2--2h3p2--0-------------------------------|
E|-x--x-----x-------x-----x-----x--------------------------------------------|

e|---------------------------------------------------------------------------|
B|---------------------------------------------------------------------------|
G|---------------------------------------------------------------------------|
D|----------------------------5--3--2p0--------------------------------------|
A|-7--------6--------5-------------------------------------------------------|
E|----x--x-----x--x-----x--x-------------------------------------------------|


Main riff (Play once)

Solo 2

Verse (3)

Chorus

Outro:
e|---------------------------------------------------------------------------|
B|---------------------------------------------------------------------------|
G|---------------------------------------------------------------------------|
D|---------------------------------------------------------------------------|
A|---------------------------------------------------------------------------|
E|-\x-x-x-x-x-x--2h3--x-x-x-x-x-x--2h3--x-x-x-x-x-x--2h3--5---3---2----------|

e|---------------------------------------------------------------------------|
B|---------------------------------------------------------------------------|
G|---------------------------------------------------------------------------|
D|---------------------------------------------------------------------------|
A|---------------------------------------------------------------------------|
E|-x-x-x-x-x-x--2h3--x-x-x-x-x-x--2h3--x-x-x-x-x-x--2h3--3333332222220000----|

e|---------------------------------------------------------------------------|
B|---------------------------------------------------------------------------|
G|---------------------------------------------------------------------------|
D|---------------------------------------------------------------------------|
A|---------------------------------------------------------------------------|
E|-x-x-x-x-x-x--2h3--x-x-x-x-x-x--2h3--x-x-x-x-x-x--2h3--5---3---2h3p2-------|

e|---------------------------------------------------------------------------|
B|---------------------------------------------------------------------------|
G|------------------------------------------------7--6--5-----------2--------|
D|----------------------------5--4---2------------7--6--5--7--6--5--2--------|
A|----------------------------5--4---2---------------------7--6--5--0--------|
E|-x-x-x-x-x-x--2h3--x-x-x-x--3--2---0---------------------------------------|
                                      Scatterbrain!           (Hold last note)


************************************

| /   slide up
| \   slide down
| h   hammer-on
| p   pull-off
| ~   vibrato
| +   harmonic
| x   Mute note
| b   Bend
| pb  Pre-bend
| br  Bend release
| pbr Pre-bend release
| brb Bend release bend

************************************
comments
We did not receive enough feedback on this tab! Please rate:
print report bad tab
1 2 3 4 5
I want to post or [tab]
guest
You may want to rate the tab now too:
select rating
Please do not post tabs as comments. Select "correction" instead!