Oops, an error
Loading. Please wait.

Under One Sun - Plushy Zebra Tab

32 views 1 this week
no commentswrite comment
1 2 3 4 5
3 more votes to show rating
add to favorites
launch autoscroll
font size
0
reset
how to read this tab
guitar tuner
Autoscroll
slow
fast
+/-
esc
set tempo
stop
Help us to improve Ultimate-Guitar.com Take our survey!
×
Author
Difficulty
novice
Intro (kinda sucks lol)
E—--5~-------------------------5v---------------------------------|
B—--5~-------------------------5v---------------------------------|
G—--6~-------------------------6v---Upstroke back down slower-----|
D—--7~-------------------------7v---------------------------------|
A—--7~-------------------------7v---------------------------------|
E—--5~-------------------------5v---------------------------------|

Two or Four (who cares) measure break of bass/drums

Verse is all ska-ish upstrokes. Chord Inversions

      D           C           G           A
E-x--2--x--2--x--0--x--0--x--3--x--3--x--0-0-0--------------------|
B-x--3--x--3--x--1--x--1--x--0--x--0--x--2-2-2--------------------|
G-x--2--x--2--x--0--x--0--x--0--x--0--x--2-2-2------x4------------|
D-x-----x-----x-----x-----x-----x-----x---------------------------|
A-x-----x-----x-----x-----x-----x-----x---------------------------|
E-x-----x-----x-----x-----x-----x-----x---------------------------|

Chorus time

     D             C
E-x--2~--2-2-2--x—-0~--0-0-0--------------------------------------|
B-x--3~--3-3-3--x—-1~--1-1-1--------------------------------------|
G-x—-2~--2-2-2--x—-0~--0-0-0--------------------------------------|
D-x--^----------x----------------x2-------------------------------|
A-x—let ring-a--x-------------------------------------------------|
E-x-------bit---x-------------------------------------------------|

Then move on to this

     D         Dsus4         C
E-x--2--x--2--x--3--x--3--x--0--x--0--x--0--x--0------------------|
B-x--3--x--3--x--3--x--3--x--1--x--1--x--1--x--1------------------|
G-x--2--x--2--x--2--x--2--x--0--x--0--x--0--x--0------------------|
D-x-----x-----x-----x-----x-----x-----x-----x------x2-------------|
A-x-----x-----x-----x-----x-----x-----x-----x---------------------|
E-x-----x-----x-----x-----x-----x-----x-----x---------------------|

_ILL__BRO__

Verse again

      D           C           G           A
E-x--2--x--2--x--0--x--0--x--3--x--3--x--0-0-0--------------------|
B-x--3--x--3--x--1--x--1--x--0--x--0--x--2-2-2--------------------|
G-x--2--x--2--x--0--x--0--x--0--x--0--x--2-2-2------x4(or more…)--|
D-x-----x-----x-----x-----x-----x-----x---------------------------|
A-x-----x-----x-----x-----x-----x-----x---------------------------|
E-x-----x-----x-----x-----x-----x-----x---------------------------|


Chorus time again

     D             C
E-x--2~--2-2-2--x—-0~--0-0-0--------------------------------------|
B-x--3~--3-3-3--x—-1~--1-1-1--------------------------------------|
G-x—-2~--2-2-2--x—-0~--0-0-0--------------------------------------|
D-x--^----------x----------------x4-------------------------------|
A-x—let ring-a--x-------------------------------------------------|
E-x-------bit---x-------------------------------------------------|

Then move on to this

     D         Dsus4         C
E-x--2--x--2--x--3--x--3--x--0--x--0--x--0--x--0------------------|
B-x--3--x--3--x--3--x--3--x--1--x--1--x--1--x--1------------------|
G-x--2--x--2--x--2--x--2--x--0--x--0--x--0--x--0------------------|
D-x-----x-----x-----x-----x-----x-----x-----x------x4-------------|
A-x-----x-----x-----x-----x-----x-----x-----x---------------------|
E-x-----x-----x-----x-----x-----x-----x-----x---------------------|

Bridge (BR00TAL DISTORTION TIEM)

E-----------------------------------------------------------------|
B-----------------------------------------------------------------|
G-7~----------7-----------7-----------7---------------------------|
D-7~-4-4-5-5--7--4-4-5-5--7--4-4-5-5--7--4-4-5-5--7-7-7-7-7-7-7-7-|
A-5~-4-4-5-5--5--4-4-5-5--5--4-4-5-5--5--4-4-5-5--7-7-7-7-7-7-7-7-|
E----2-2-3-3-----2-2-3-3-----2-2-3-3-----2-2-3-3--5-5-5-5-5-5-5-5-|x2

Slow down thing. Kinda shady

E----------------------------------------------------------------|
B----7-7h8p7----5-5h6p5------------------------------------------|
G--7----------5-----------4-7-4----6-9-6-------------------------|
D-----------------------5--------7-------------------------------|
A-----------------------------------------x8---------------------|
E----------------------------------------------------------------|


E-----------------------------------------------------------------|
B-----------------------------------------------------------------|
G--7--------------------------------------------------------------|
D--7-End on this--------------------------------------------------|
A--5--------------------------------------------------------------|
E-----------------------------------------------------------------|

END.
Suggest correction
Give kudos to tab author, rate the tab!
1 2 3 4 5
comments
print report bad tab
guest
You may want to rate the tab now too:
select rating
Wanna post a correction for this tab? Suggest correction