Oops, an error
Loading. Please wait.

Underdogs - Dreaming Of You Tab

92 views 1 this week
no commentswrite comment
1 2 3 4 5
please rate
add to favorites
launch autoscroll
font size
0
reset
how to read this tab
guitar tuner
Autoscroll
slow
fast
+/-
esc
set tempo
stop
Help us to improve Ultimate-Guitar.com Take our survey!
×
Author
Band: The Underdogs
Song: Dreaming of You (Coral Cover)
Tabber: Daniel Young

Intro: Bass Enters

|-2-2---2-2--|------------|
|----2-----2-|-3-3---3-3--|
|------------|----3-----3-|
|------------|------------|  x2

Verse 1:
Am
It's up in my
              F
heart when it skips a beat 
Am                           F
Can't feel no pavement right under my feet 


Chorus:
C                    
Up in my lonely room
G                     F
When I'm dreaming of you                 
             Am
Oh what can I do
                  F
I still need you, but
             Am       F  E
I don't want you now


Verse 2:

Am                   F
When I'm down and my hands are tied (hands are tied)
Am                       F
I cannot reach a pen for me to draw the line (draw the line)
Am                    F
From this pain I just can't disguise
Am                      F
Its gonna hurt but I'll have to say goodbye

Chorus

Solo:

|-------------------|----------|------------------------|
|-1-0-1-3—-1-0--1-1-|----------|-1-0-1-3—-1—0--1-1--3-1-|
|--------------2----|--0-0-0-2-|--------------2---------|
|-------------------|-2-2-2----|------------------------|
|-------------------|----------|------------------------|
|-------------------|----------|------------------------|

|-0-3-0-3-0-3-|-----------0-1-|-1-0-1-0---|-----0-----|
|-------------|---3-3-3-3-----|---------1-|-1-3---3-1-|
|-------------|---------------|-----------|-----------|
|-------------|---------------|-----------|-----------|
|-------------|---------------|-----------|-----------|
|-------------|---------------|-----------|-----------|

|-----0-----|------|
|-1-3---3-1-|-1--0-|
|-----------|------|
|-----------|------|
|-----------|------|
|-----------|------|


Am  F  Am  F 

Chorus
Suggest correction
What's this?
You can suggest a correction to this tab. Community and Mods will review your correction and vote to approve or reject it.
comments
We did not receive enough feedback on this tab! Please rate:
print report bad tab
1 2 3 4 5
guest
You may want to rate the tab now too:
select rating
Please do not post tabs as comments. Select "correction" instead!