Oops, an error
Loading. Please wait.

Underdogs - Take Me Out Tab

139 views 3 this week
1 commentread comment
1 2 3 4 5
please rate
add to favorites
launch autoscroll
font size
0
reset
how to read this tab
guitar tuner
Tab Pro tools
  • play this tab
  • loop segment
  • change instrument
  • show fretboard
  • metronome
×
Best way to learn
"Underdogs - Take Me Out"
Autoscroll
slow
fast
+/-
esc
set tempo
stop
Contributor
----------------------------------------------------------------------------
                          Take Me Out - The Underdogs
----------------------------------------------------------------------------
Tabbed by:  Danny Y
Email:  wee_danny_cfc@hotmail.com

Tuning:  Standard

Chords Used: 
Em:  022000
Am7: x02010
D:   x00232
G:   320033
Bm7: x24432
A:   x02220
F:   133211
C:   x32010
Am:  x02210

Intro (Part 1) 
   Em
e|-------------------------------------------------------------------------|
B|-------------------------------------------------------------------------|
G|-------------------------------------------------------------------------|
D|-------------------------------------------------------------------------|
A|-7-7-7-7-7-7-7-7-7-7-7-7-7-7-7-7-7-7-7-7-7-7-7-7-7-7-7-7-7-7-7-7-7-7-7---|
E|-0-0-0-------------------------------------------------------------------|

Intro (Part 2)
     Am7             D               G           Bm7     Em
e|-------------------------------------------------------------------------|
B|-------------------------------------------------------------------------|
G|-------------------------------------------------------------------------|
D|---5-5-5-5-5-5-5-5-4-4-4-4-4-4-4-4-9--9--9--9--7-7-7-7-5-5-5-5-5-5-5-5---|
A|---7-7-7-7-7-7-7-7-5-5-5-5-5-5-5-5-10-10-10-10-9-9-9-9-7-7-7-7-7-7-7-5---|
E|-------------------------------------------------------------------------|

Intro (Part 3)
     Em                               G       A      Em                
e|---------------------------------------------------------------------|
B|---------------------------------------------------------------------|
G|---------------------------------------------------------------------|
D|---7-7-7-7-----------------------------------------------------------|
A|-----------7-7-7-7-5-5-5-5-5-5-5-5--5-5-5-5-7--5-7-0-0-0-0-0-0-0-0---|
E|---------------------------------------------------------------------|

Intro (Part 4)
     G               D               F               C
e|---------------------------------------------------------------------|
B|---------------------------------------------------------------------|
G|---------------------------------------------------------------------|
D|---------------------------------------------------------------------|
A|-------------------5-5-5-5-5-5-5-5-----------------3-3-3-3-3-3-3-3---|
E|---3-3-3-3-3-3-3-3-----------------1-1-1-1-1-1-1-1-------------------|

Intro (Part 5)
     Em
e|---------------------------------------------------------------------|
B|---------------------------------------------------------------------|
G|---------------------------------------------------------------------|
D|---------------------------------------------------------------------|
A|---2-2-2-2-2-2-2-2-2-2-2-2-2-2-2-2-2-2-2-2-2-2-2-2-2-2-2-2-2-2-2-2---|
E|---------------------------------------------------------------------|

Interlude (Rhythm)
     Em
e|---0x0x0-0-00---|
B|---0x0x0-0-03---|
G|---0x0x0-0-00---|
D|---2x2x2-2-22---|
A|---2x2x2-2-22---|
E|----------------|

Interlude (Lead)
e|---0-0-0-0-0----|
B|------------3---|
G|----------------|
D|----------------|
A|----------------|
E|----------------|

Main Riff (Rhythm)
     Em                        Am7          B
e|---3-0--0-00----3-0--0-00----3-0--0-00----22222222---|
B|---0-0--3-30----0-0--3-30----1-1--3-31----44444444---|
G|---0-0--0-00----0-0--0-00----0-0--0-00----44444444---|
D|---2-2--2-22----2-2--2-22----2-2--2-22----44444444---|
A|---2-2--2-22----2-2--2-22----0-0--0-00----22222222---|
E|-----------------------------------------------------|

Main Riff (Lead)
e|---3-0-----0---|---222222222-0-0---|
B|--------3-3----|-------------------|
G|---------------|-------------------|
D|---------------|-------------------|
A|---------------|-------------------|
E|---------------|-------------------|
                x4
Chorus
     Am
e|---00000000000000000---|
B|---11111111111111111---|
G|---22222222222222222---|
D|---22222222222222222---|
A|-----------------------|
E|-----------------------|

Intro (Part 1) x1

Intro (Part 2) x4
So if you're lonely 
You know I'm here waiting for you 
I'm just a crosshair 
I'm just a shot away from you 
And if you leave here 
You leave me broken, shattered, I lie 
I'm just a crosshair 
I'm just a shot, then we can die 

Intro (Part 3) x1

Intro (Part 4) x1
I know I won't be leaving here with you 

Intro (Part 5) x1
Interlude (Rhythm & Lead) x4
Main Riff (Rhythm & Lead) x2

Main Riff (Rhythm) x2
I say don't you know 
You say you don't know 
I say... take me out! 
I say you don't show 
Don't move, time is slow 
I say... take me out! 

Main Riff (Rhythm & Lead) x1

Main Riff (Rythem) x2
I say you don't know 
You say you don't know 
I say... take me out!
If I move this could die
If eyes move this could die
I want you...to take me out!

Interlude (Rhythm & Lead)x2

Chorus x4
I know I won't be leaving here (with you) 
I know I won't be leaving here 
I know I won't be leaving here (with you) 
I know I won't be leaving here with you

Main Riff (Rhythm & Lead) x1

Main Riff (Rhythm) x3
I say don't you know?
You say you don't know
I say take me out
If I wane, this can die
If I wane, this can die
I want you to take me out
If I move, this could die
If eyes move, this could die
Come on, take me out

Main Riff (Rhythm & Lead) x1
Interlude (Rhythm & Lead) x2

Chorus x4
I know I won't be leaving here
I know I won't be leaving here
I know I won't be leaving here
I know I won't be leaving here with you

Interlude (Rhythm & Lead) x3

| /  slide up
| \  slide down
| h  hammer-on
| p  pull-off
| ~  vibrato
| +  harmonic
| x  Mute note
comments
We did not receive enough feedback on this tab! Please rate:
print report bad tab
1 2 3 4 5
1 comment total.
0 reply
bettyswollox wrote on April 9 2005, 12:00 am

why have u just tabbed out take me out by franz ferdinand and said it woz a different band

I want to post or [tab]
guest
You may want to rate the tab now too:
select rating
Please do not post tabs as comments. Select "correction" instead!