Oops, an error
Loading. Please wait.

Undertagen - Dreh Den Indieswag Auf Tab

80 views 1 this week
no commentswrite comment
1 2 3 4 5
please rate
add to favorites
launch autoscroll
font size
0
reset
how to read this tab
guitar tuner
Tab Pro tools
  • play this tab
  • loop segment
  • change instrument
  • show fretboard
  • metronome
Autoscroll
slow
fast
+/-
esc
set tempo
stop
Contributor
Untertagen - Dreh den (Indie-)Swag auf

TAB by Faxter

### This is a custom version, no 100% TAB, but you'll get the idea! ###
_______________________________________________________________________
_______________________________________________________________________




+++ INTRO: +++

Guitar 2: Am G [Straight Beat]


+++ CHORUS: +++

Guitar 1:                          #     Variation:
                                   #
e|-12-10-------------------|       #   e|-12-10-------------------|
B|-------12----------------|       #   B|-------12----------------|
G|----------12-14----------| x4    #   G|----------12-14-12-14----|
D|----------------12-14-12-|       #   D|----------------------12-|
A|-------------------------|       #   A|-------------------------|
E|-------------------------|       #   E|-------------------------|
                                   #
                                   #
  
Guitar 2: Em C Am G [Straight Beat]  x2


+++ VERSE: +++

Guitar 1:
                             
                   #    e|--12-12-12-12-12-12--15-15-15-|--12-12-12-12-12-12-----------|
                   #    B|------------------------------|---------------------12-12-12-|
Pause 8 measures   #    G|------------------------------|------------------------------| x4
                   #    D|---[OFFBEAT]------------------|------------------------------|
                   #    A|------------------------------|------------------------------|
                   #    E|------------------------------|------------------------------|

Guitar 2:

e|-7~~~-----|----------|-7~~~-----|----------|      
B|-8~~~-----|-8~~~-----|-8~~~-----|-8~~~-----|      
G|-9~~~-----|-9~~~-----|-9~~~-----|-9~~~-----| x4   
D|----------|-10~~-----|----------|-10~~-----|      
A|----------|----------|----------|----------|      
E|----------|----------|----------|----------|     

e|----------|----------|----------|----------|
B|----------|----------|----------|----------|
G|----------|-5-5--5-5-|----------|----------| x2
D|-2-2--2-2-|-5-5--5-5-|-7-7--7-7-|-5-5--5-5-|
A|-2-2--2-2-|-3-3--3-3-|-7-7--7-7-|-5-5--5-5-|
E|-0-0--0-0-|----------|-5-5--5-5-|-3-3--3-3-|


+++ INTERLUDE: +++ 

Guitar 1:
                Break
e|-12-12-15-|     /     e|--12-12-12-12-12--| [Offbeat]
B|----------|     /     B|------------------|

Guitar 2:

[Silence]


+++ PRE-CHORUS: +++

Guitar 1+2:

e|----------|----------|
B|----------|----------|
G|-99999999-|-11111111-|  ... 2nd measure looks strange: (E and F#).
D|-99999999-|-11111111-|
A|-77777777-|-99999999-|
E|----------|----------|


+++ CHORUS: +++

Guitar 1:                          #     Variation:
                                   #
e|-12-10-------------------|       #   e|-12-10-------------------|
B|-------12----------------|       #   B|-------12----------------|
G|----------12-14----------| x8    #   G|----------12-14-12-14----|
D|----------------12-14-12-|       #   D|----------------------12-|
A|-------------------------|       #   A|-------------------------|
E|-------------------------|       #   E|-------------------------|
                                   #
                                   #
  
Guitar 2: Em C Am G [Straight Beat]  x4


+++ VERSE: +++

Guitar 1:

e|-----|       |--------------|      
B|-----|       |--------------|      
G|-----| x1    |--------------| x7    
D|-14--|       |-14/16--16/14-|      
A|-----|       |--------------|     
E|-----|       |--------------|     

e|--12-12-12-12-12-12--15-15-15-|--12-12-12-12-12-12-----------|
B|------------------------------|---------------------12-12-12-|
G|------------------------------|------------------------------| x4 
D|---[OFFBEAT]------------------|------------------------------|
A|------------------------------|------------------------------|
E|------------------------------|------------------------------|

Guitar 2:

e|--------------------|            
B|--------------------|         
G|--------------------| x2     
D|--------------------|          
A|------3~~~----------|            
E|-0~~~------5~~~-3~~~|      

e|---------------|---------------|---------------|---------------|
B|---------------|---------------|---------------|---------------|   
G|---------------|-5-5--5-5-5--5-|---------------|---------------| x2  
D|-2-2--2-2-2--2-|-5-5--5-5-5--5-|-7-7--7-7-7--7-|-5-5--5-5-5--5-| 
A|-2-2--2-2-2--2-|-3-3--3-3-3--3-|-7-7--7-7-7--7-|-5-5--5-5-5--5-| 
E|-0-0--0-0-0--0-|---------------|-5-5--5-5-5--5-|-3-3--3-3-3--3-| 

e|----------|----------|----------|----------|
B|----------|----------|----------|----------|
G|----------|-5-5--5-5-|----------|----------| x4
D|-2-2--2-2-|-5-5--5-5-|-7-7--7-7-|-5-5--5-5-|
A|-2-2--2-2-|-3-3--3-3-|-7-7--7-7-|-5-5--5-5-|
E|-0-0--0-0-|----------|-5-5--5-5-|-3-3--3-3-|


+++ PRE-CHORUS: +++

Guitar 1+2:

e|----------|----------|
B|----------|----------|
G|-99999999-|-11111111-|  ... 2nd measure looks strange: (E and F#).
D|-99999999-|-11111111-|
A|-77777777-|-99999999-|
E|----------|----------|


+++ CHORUS: +++

Guitar 1:                          #     Variation:
                                   #
e|-12-10-------------------|       #   e|-12-10-------------------|
B|-------12----------------|       #   B|-------12----------------|
G|----------12-14----------| x8    #   G|----------12-14-12-14----|
D|----------------12-14-12-|       #   D|----------------------12-|
A|-------------------------|       #   A|-------------------------|
E|-------------------------|       #   E|-------------------------|
                                   #
                                   #
  
Guitar 2: Em C Am G [Straight Beat]  x4


+++ BREAKDOWN: +++

Guitar 1:

e|-------------------------|                             
B|-------------------------|                             
G|-------------------------| ["Tremolo" pick 16th notes and follow the beat on the last measure]
D|-14-16-14-16-17-19-17-19-|                           
A|-------------------------|                             
E|-------------------------|



+++ CHORUS: +++

Guitar 1:                          #     Variation:
                                   #
e|-12-10-------------------|       #   e|-12-10-------------------|
B|-------12----------------|       #   B|-------12----------------|
G|----------12-14----------| x12   #   G|----------12-14-12-14----|
D|----------------12-14-12-|       #   D|----------------------12-|
A|-------------------------|       #   A|-------------------------|
E|-------------------------|       #   E|-------------------------|
                                   #
                                   #
  
Guitar 2: Em C Am G [Straight Beat]  x6


__________________________
Copyright 2012 © by Faxter                   
comments
We did not receive enough feedback on this tab! Please rate:
print report bad tab
1 2 3 4 5
I want to post or [tab]
guest
You may want to rate the tab now too:
select rating
Please do not post tabs as comments. Select "correction" instead!