Oops, an error
Loading. Please wait.

Undying Vengeance - Thatd Be The Day Tab

33 views 1 this week
no commentswrite comment
1 2 3 4 5
please rate
add to favorites
launch autoscroll
font size
0
reset
how to read this tab
guitar tuner
Autoscroll
slow
fast
+/-
esc
set tempo
stop
Help us to improve Ultimate-Guitar.com Take our survey!
×
Contributor
Tuning
D A D G B E
INTRO PART I (play twice):

Guitar 1
 E |-11----11----11--12--11----11----11--12--|
 B |---9-9---9-9---9---9---9-9---9-9---9---9-|
 G |-----------------------------------------|
 D |-----------------------------------------|
 A |-----------------------------------------|
 D |-----------------------------------------|

 E |-11----11----11--12--11----11----11--12--|
 B |---9-9---9-9---9---9---9-9---9-9---9---9-|
 G |-----------------------------------------|
 D |-----------------------------------------|
 A |-----------------------------------------|
 D |-----------------------------------------|

Guitar 2

 E |-----------------------------------------|
 B |-----------------------------------------|
 G |-----------------------------------------|
 D |-----------------------------------------|
 A |-----------------------------------------|
 D |-----------------------------------------|

 E |-----------------------------------------|
 B |-----------------------------------------|
 G |-----------------------------------------|
 D |---------------------------------------0-|
 A |---------------------------------------0-|
 D |---------------------------------------0-|

INTRO PART II:

Guitar 1
 E |-11----11----11--12--11----11----11--12--|
 B |---9-9---9-9---9---9---9-9---9-9---9---9-|
 G |-----------------------------------------|
 D |-----------------------------------------| x4
 A |-----------------------------------------|
 D |-----------------------------------------|

Guitar 2
 E |---------------------------------|
 B |---------------------------------|
 G |---------------------------------|
 D |-000-1-3-000-3-5-000-5-7-000-7-9-| x2
 A |-000-1-3-000-3-5-000-5-7-000-7-9-|
 D |-000-1-3-000-3-5-000-5-7-000-7-9-|
  PM .................................

Guitar 1 & 2
 E |-----------------------|
 B |-----------------------|
 G |-----------------------|
 D |-\\\\\\\\\\\-----------|
 A |-PICK SLIDE------------|
 D |-\\\\\\\\\\\-----------|

INTRO PART 3:

Guitar 1
 E |---------------------------------|
 B |---------------------------------|
 G |---------------------------------|
 D |-000-1-3-000-3-5-000-5-7-000-7-9-| x4
 A |-000-1-3-000-3-5-000-5-7-000-7-9-|
 D |-000-1-3-000-3-5-000-5-7-000-7-9-|
  PM ...     ...     ...     ...

Guitar 2
 E |-----------------------------------------------------|
 B |-----------------------------------------------------|
 G |----------------------------------------10h12p10\7-8-|
 D |---------------------------10h12p10\7-8--------------|
 A |--------------10h12p10\7-8---------------------------|
 D |-10h12p10\7-8----------------------------------------|

 E |-------------------------------------------------------|
 B |-------------------------------------------------------|
 G |-------------------------------------------------------|
 D |---------------------------10h12p10\7-8-15h17p15\12-14-|
 A |--------------10h12p10\7-8-----------------------------|
 D |-10h12p10\7-8------------------------------------------|


 E |-----------------------------------------------------|
 B |-----------------------------------------------------|
 G |----------------------------------------10h12p10\7-8-|
 D |---------------------------10h12p10\7-8--------------|
 A |--------------10h12p10\7-8---------------------------|
 D |-10h12p10\7-8----------------------------------------|


 E |-------------------------------------------------------|
 B |-------------------------------------------------------|
 G |-------------------------------------------------------|
 D |---------------------------10h12p10\7-8-15h17p15\12-14-|
 A |--------------10h12p10\7-8-----------------------------|
 D |-10h12p10\7-8------------------------------------------|

VERSE:

Guitar 1
 E |---------------------------------|
 B |---------------------------------|
 G |-----3/5-----9\7-----3/5-----9\7-|
 D |-000-3/5-000-x\x-000-3/5-000-x\x-| x2
 A |-000-1/3-000-7\5-000-1/3-000-7\5-|
 D |-000-----000-----000-----000-----|
  PM ...     ...     ...     ...

Guitar 2
 E |---------------------------------|
 B |---------------------------------|
 G |---------------------------------|
 D |-000-1-3-000-9-7-000-1-3-000-9-7-| x2
 A |-000-1-3-000-9-7-000-1-3-000-9-7-|
 D |-000-1-3-000-9-7-000-1-3-000-9-7-|
  PM ...     ...     ...     ...

CHORUS:

Guitar 1

Guitar 2
 E |---------------------------------|
 B |---------------------------------|
 G |---------------------------------|
 D |-000-1-3-000-3-5-000-5-7-000-7-9-| x4
 A |-000-1-3-000-3-5-000-5-7-000-7-9-|
 D |-000-1-3-000-3-5-000-5-7-000-7-9-|
  PM ...     ...     ...     ...

BRIDGE (It's harmonized):

Guitar 1
 E |-----------------------------------------|
 B |-----------------------------------------|
 G |-------------------------------7h9p7\4-5-|
 D |---------------------7h9p7\4-5-----------|
 A |-----------7h9p7\4-5---------------------|
 D |-7h9p7\4-5-------------------------------|


 E |-------------------------------------------|
 B |-------------------------------------------|
 G |-------------------------------------------|
 D |---------------------7h9p7\4-5-10h12p10\7-9|
 A |-----------7h9p7\4-5-----------------------|
 D |-7h9p7\4-5---------------------------------|

 E |-----------------------------------------|
 B |-----------------------------------------|
 G |-------------------------------7h9p7\4-5-|
 D |---------------------7h9p7\4-5-----------|
 A |-----------7h9p7\4-5---------------------|
 D |-7h9p7\4-5-------------------------------|


 E |-------------------------------------------|
 B |-------------------------------------------|
 G |-------------------------------------------|
 D |---------------------7h9p7\4-5-10h12p10\7-9|
 A |-----------7h9p7\4-5-----------------------|
 D |-7h9p7\4-5---------------------------------|

Guitar 2
 E |-----------------------------------------------------|
 B |-----------------------------------------------------|
 G |----------------------------------------10h12p10\7-8-|
 D |---------------------------10h12p10\7-8--------------|
 A |--------------10h12p10\7-8---------------------------|
 D |-10h12p10\7-8----------------------------------------|

 E |-------------------------------------------------------|
 B |-------------------------------------------------------|
 G |-------------------------------------------------------|
 D |---------------------------10h12p10\7-8-15h17p15\12-14-|
 A |--------------10h12p10\7-8-----------------------------|
 D |-10h12p10\7-8------------------------------------------|


 E |-----------------------------------------------------|
 B |-----------------------------------------------------|
 G |----------------------------------------10h12p10\7-8-|
 D |---------------------------10h12p10\7-8--------------|
 A |--------------10h12p10\7-8---------------------------|
 D |-10h12p10\7-8----------------------------------------|


 E |-------------------------------------------------------|
 B |-------------------------------------------------------|
 G |-------------------------------------------------------|
 D |---------------------------10h12p10\7-8-15h17p15\12-14-|
 A |--------------10h12p10\7-8-----------------------------|
 D |-10h12p10\7-8------------------------------------------|

VERSE:

Guitar 1
 E |---------------------------------|
 B |---------------------------------|
 G |-----3/5-----9\7-----3/5-----9\7-|
 D |-000-3/5-000-x\x-000-3/5-000-x\x-| x2
 A |-000-1/3-000-7\5-000-1/3-000-7\5-|
 D |-000-----000-----000-----000-----|
  PM ...     ...     ...     ...

Guitar 2
 E |---------------------------------|
 B |---------------------------------|
 G |---------------------------------|
 D |-000-1-3-000-9-7-000-1-3-000-9-7-| x2
 A |-000-1-3-000-9-7-000-1-3-000-9-7-|
 D |-000-1-3-000-9-7-000-1-3-000-9-7-|
  PM ...     ...     ...     ...

CHORUS:

Guitar 1

Guitar 2
 E |---------------------------------|
 B |---------------------------------|
 G |---------------------------------|
 D |-000-1-3-000-3-5-000-5-7-000-7-9-| x4
 A |-000-1-3-000-3-5-000-5-7-000-7-9-|
 D |-000-1-3-000-3-5-000-5-7-000-7-9-|
  PM ...     ...     ...     ...

BREAKDOWN:

SOLO:

CHORUS (Play Twice):

Guitar 1

Guitar 2
 E |---------------------------------|
 B |---------------------------------|
 G |---------------------------------|
 D |-000-1-3-000-3-5-000-5-7-000-7-9-| x4
 A |-000-1-3-000-3-5-000-5-7-000-7-9-|
 D |-000-1-3-000-3-5-000-5-7-000-7-9-|
  PM ...     ...     ...     ...

OUTRO:

Guitar 1 & 2

 E |---|
 B |---|
 G |---|
 D |-0-|
 A |-0-|
 D |-0-|
  PM .

LYRICS:

I thought you were my ally,
And now I've realized,
Your promises were lies,
Tonight, the traitor dies.
Don't close your eyes.

That'd be the day,
That'd be the day,
Where a traitor isn't what I see.
That'd be the day,
That'd be the day,
Where you don't betray me.

We all seem to have friends,
But in the end stand alone.
I was standing for you,
And thought you were for me too.

That'd be the day,
That'd be the day,
Where a traitor isn't what I see.
That'd be the day,
That'd be the day,
Where you don't betray me.

That'd be the day,
So don't close your eyes.

That'd be the day,
That'd be the day,
Where a traitor isn't what I see.
That'd be the day,
That'd be the day,
Where you don't betray me.

That'd be the day,
That'd be the day,
Where a traitor isn't what I see.
That'd be the day,
That'd be the day,
Where you don't betray me.

That'd Be The Day!
comments
We did not receive enough feedback on this tab! Please rate:
print report bad tab
1 2 3 4 5
I want to post or [tab]
guest
You may want to rate the tab now too:
select rating
Please do not post tabs as comments. Select "correction" instead!