Oops, an error
Loading. Please wait.

Unicorns And Mustaches - If I Were A Tree Tab

432 views 1 this week
no commentswrite comment
1 2 3 4 5
please rate
add to favorites
launch autoscroll
font size
0
reset
how to read this tab
guitar tuner
Autoscroll
slow
fast
+/-
esc
set tempo
stop
Help us to improve Ultimate-Guitar.com Take our survey!
×
Author
Difficulty
Capo
intermediate
4th fret
"If I Were a Tree" by Unicorns & Mustaches

Tabbed by Brooks Marshall

Standard Tuning
Capo 4th fret

The whole song is the same three chords and the same finger picking pattern. I like to 
strumming into the chorus instead of the picking the band does just to switch things up. 
and please comment with any corrections.


Intro & Verse:
e|------------------------------------------------------|
B|----1-----1-----1-----1-----1-----1-----1-------------|
G|----2-----2-----0-----0-----0-----0-----0-------------|  (x6)
D|----2-----2-----0-----0-----2-----2-----2-------------|
A|--0-----0-----------------3-----3-----3-----3-2-0-----|
E|--------------3-----3---------------------------------|

Chorus:
Use same counting pattern as the verse for strumming or fingerpick it like the band does.
   "If I were a dam..."
e|------------------------------------------------------|
B|----1-----1-----1-----1-----1-----1-----1-------------|
G|----2-----2-----0-----0-----0-----0-----0-------------|
D|----2-----2-----0-----0-----2-----2-----2-------------|
A|--0-----0-----------------3-----3-----3---------------|
E|--------------3-----3---------------------------------|

Verse:
            "If I were a bus..."
e|--------------------------------------------------------------|
B|------------1-----1-----1-----1-----1-----1-----1-------------|
G|------------2-----2-----0-----0-----0-----0-----0-------------|  (x4)
D|------------2-----2-----0-----0-----2-----2-----2-------------|
A|--3-2-0---0-----0-----------------3-----3-----3-----3-2-0-----|
E|----------------------3-----3---------------------------------|

Chorus:
    "If I were your boss..."
e|------------------------------------------------------|
B|----1-----1-----1-----1-----1-----1-----1-------------|
G|----2-----2-----0-----0-----0-----0-----0-------------|
D|----2-----2-----0-----0-----2-----2-----2-------------|
A|--0-----0-----------------3-----3-----3---------------|
E|--------------3-----3---------------------------------|

Outro:
e|--------------------------------------------------------------|
B|------------1-----1-----1-----1-----1-----1-----1-------------|
G|------------2-----2-----0-----0-----0-----0-----0-------------|  (x2)
D|------------2-----2-----0-----0-----2-----2-----2-------------|
A|--3-2-0---0-----0-----------------3-----3-----3-----3-2-0-----|
E|----------------------3-----3---------------------------------|
Suggest correction
What's this?
You can suggest a correction to this tab. Community and Mods will review your correction and vote to approve or reject it.
comments
We did not receive enough feedback on this tab! Please rate:
print report bad tab
1 2 3 4 5
guest
You may want to rate the tab now too:
select rating
Please do not post tabs as comments. Select "correction" instead!