Oops, an error
Loading. Please wait.

University Of Michigan Marching Band - Hail To The Victors Tab

58 views 6 this week
no commentswrite comment
1 2 3 4 5
3 more votes to show rating
add to favorites
launch autoscroll
font size
0
reset
how to read this tab
guitar tuner
Autoscroll
slow
fast
+/-
esc
set tempo
stop
Help us to improve Ultimate-Guitar.com Take our survey!
×
Author
Difficulty
novice
About this tab version
Michigan Fight Song Basic Chorus, May Add Victors Fanfare extended version. Was this info helpful? Yes No
"The Victors", and also called "Hail to the Victors", 
is the fight song of the University of Michigan (UM) composed 
by UM student Louis Elbel in 1898. The song was first played
publicly by John Philip Sousa and his band.

[Verse 1]
Hail to the victors valiant, hail to the conquering heroes,
hail, hail to Michigan the leaders and best,

e|--------------------------------0-------------|-----------|
B|-0-----0-----0--1---0-1---0-1-3---0-0-1-----0-|----3------|
G|---0-2---0-2------2-----2---------------0-2---|2-0--------|
D|----------------------------------------------|-----------|
A|----------------------------------------------|-----------|
E|----------------------------------------------|-----------|

[Verse 2]
Hail to the victors valiant, hail to the conquering heroes,
hail, hail to Michigan the champions of the West! (Go Blue)

e|--------------------------------0-------------|-----------|
B|-0-----0-----0--1---0-1---0-1-3---0-0-1-----0-|-3-0-------|
G|---0-2---0-2------2-----2---------------0-2---|-----2-0---|
D|----------------------------------------------|-----------|
A|----------------------------------------------|-----------|
E|----------------------------------------------|-----------|
Suggest correction
Give kudos to tab author, rate the tab!
1 2 3 4 5
comments
print report bad tab
guest
You may want to rate the tab now too:
select rating
Wanna post a correction for this tab? Suggest correction