Oops, an error
Loading. Please wait.

Unknown - I Wrote It Tab

112 views 1 this week
no commentswrite comment
1 2 3 4 5
please rate
add to favorites
launch autoscroll
font size
0
reset
how to read this tab
guitar tuner
Autoscroll
slow
fast
+/-
esc
set tempo
stop
Help us to improve Ultimate-Guitar.com Take our survey!
×
Difficulty
novice
|---0-----3-----0-----1-----0---------|
|---1-----0-----0-----1-----1---------|
|---0-----0-----0-----2-----2-----3---|
|---2-----0-----2-----3-----2-----3---|
|---3-----2-----2-----3-----0-----1---|
|---------3-----0-----1---------------|



||--------------------------|--------------------------|
||o------------------5555---|--------------------------|
||---5---5---55--55--5555---|-------------------5555---|
||---5---5---55--55--3333---|---5---5---55--55--5555---|
||o--3---3---33--33---------|---5---5---55--55--3333---|
||--------------------------|---3---3---33--33---------|



|--------------------------|--------------------------||
|--------------------------|-------------------------o||
|-------------------7777---|-------------------3333---||
|---7---7---77--77--7777---|---3---3---33--33--3333---||
|---7---7---77--77--5555---|---3---3---33--33--1111--o||
|---5---5---55--55---------|---1---1---11--11---------||



||-------------------|-------------------|-------------------|-------------------||
||o--------------5---|-------------------|-------------------|------------------o||
||---5---5-----555---|---------------5---|---------------7---|---------------3s/-||
||---5---5-----553---|---5---5-----555---|---7---7-----777---|---3---3-----333s/-||
||o--3---3-----33----|---5---5-----553---|---7---7-----775---|---3---3-----331s/o||
||-------------------|---3---3-----33----|---5---5-----55----|---1---1-----11----||



|-------------|
|---3------(3)|
|---3------(3)|
|---3------(3)|
|---1------(1)|
|-------------|
Suggest correction
What's this?
You can suggest a correction to this tab. Community and Mods will review your correction and vote to approve or reject it.
comments
We did not receive enough feedback on this tab! Please rate:
print report bad tab
1 2 3 4 5
guest
You may want to rate the tab now too:
select rating
Please do not post tabs as comments. Select "correction" instead!