Oops, an error
Loading. Please wait.

V5 - Homebound Bass Tab

64 views 1 this week
1 commentread comment
1 2 3 4 5
please rate
add to favorites
launch autoscroll
font size
0
reset
guitar tuner
Autoscroll
slow
fast
+/-
esc
set tempo
stop
Help us to improve Ultimate-Guitar.com Take our survey!
×
Author
Difficulty
novice
This is the finished version of Homebound for the bass!

                 INTRO
G|--------|--------|
D|--------|3-332-22|
A|33333333|--------|
E|--------|--------|

                 VERSE
G|--------|--------|--------|--------|
D|--------|3-332-22|--------|3-332-22|
A|33333333|--------|33333333|--------|
E|--------|--------|--------|--------|

G|--------|--------|--------|--------|
D|--------|3-332-22|--------|3-332-22|
A|33333333|--------|33333333|--------|
E|--------|--------|--------|--------|

                 CHORUS
G|--------|--------|--------|--------|
D|--------|--------|33333333|22222222|
A|33333333|22222222|--------|--------|
E|--------|--------|--------|--------|

G|--------|--------|--------|--------|
D|--------|--------|33333333|55555555|
A|33333333|22222222|--------|--------|
E|--------|--------|--------|--------|

G|--------|--------|--------|--------|
D|--------|--------|33333333|22222222|
A|33333333|22222222|--------|--------|
E|--------|--------|--------|--------|

G|--------|--------|--------|--------|
D|--------|--------|33333333|55555555|
A|33333333|22222222|--------|--------|
E|--------|--------|--------|--------|

                 VERSE
G|--------|--------|--------|--------|
D|--------|3-332-22|--------|3-332-22|
A|33333333|--------|33333333|--------|
E|--------|--------|--------|--------|

G|--------|--------|--------|--------|
D|--------|3-332-22|--------|3-332-22|
A|33333333|--------|33333333|--------|
E|--------|--------|--------|--------|

                 CHORUS
G|--------|--------|--------|--------|
D|--------|--------|33333333|22222222|
A|33333333|22222222|--------|--------|
E|--------|--------|--------|--------|

G|--------|--------|--------|--------|
D|--------|--------|33333333|55555555|
A|33333333|22222222|--------|--------|
E|--------|--------|--------|--------|

G|--------|--------|--------|--------|
D|--------|--------|33333333|22222222|
A|33333333|22222222|--------|--------|
E|--------|--------|--------|--------|

G|--------|--------|--------|--------|
D|--------|--------|33333333|55555555|
A|33333333|22222222|--------|--------|
E|--------|--------|--------|--------|

                 VERSE
G|--------|--------|--------|--------|
D|--------|3-332-22|--------|3-332-22|
A|33333333|--------|33333333|--------|
E|--------|--------|--------|--------|

G|--------|--------|--------|--------|
D|--------|3-332-22|--------|3-332-22|
A|33333333|--------|33333333|--------|
E|--------|--------|--------|--------|

                 CHORUS
G|--------|--------|--------|--------|
D|--------|--------|33333333|22222222|
A|33333333|22222222|--------|--------|
E|--------|--------|--------|--------|

G|--------|--------|--------|--------|
D|--------|--------|33333333|55555555|
A|33333333|22222222|--------|--------|
E|--------|--------|--------|--------|

G|--------|--------|--------|--------|
D|--------|--------|33333333|22222222|
A|33333333|22222222|--------|--------|
E|--------|--------|--------|--------|

G|--------|--------|--------|--------|
D|--------|--------|33333333|55555555|
A|33333333|22222222|--------|--------|
E|--------|--------|--------|--------|

                 VERSE
G|--------|--------|--------|--------|
D|--------|3-332-22|--------|3-332-22|
A|33333333|--------|33333333|--------|
E|--------|--------|--------|--------|

G|--------|--------|--------|--------|
D|--------|3-332-22|--------|3-332-22|
A|33333333|--------|33333333|--------|
E|--------|--------|--------|--------|

                 ENDING
G|--------|--------|--------|--------|
D|33333333|22222222|--------|55555555|
A|--------|--------|33333333|--------|
E|--------|--------|--------|--------|

G|--------|--------|--------|--------|
D|33333333|22222222|--------|55555555|
A|--------|--------|33333333|--------|
E|--------|--------|--------|--------|

G|--------|--------|
D|--------|5-------|
A|--------|--------|
E|--------|--------|
Suggest correction
Give kudos to tab author, rate the tab!
1 2 3 4 5
comments
print report bad tab
1 comment total.
0 reply
dill1233 31 wrote on August 24 2007, 07:53 am

Thank you Ultimate-Guitar for accepting it!!!

guest
You may want to rate the tab now too:
select rating
Wanna post a correction for this tab? Suggest correction