Oops, an error
Loading. Please wait.

Vanilla Gloom - Wolves bass

43 views 3 this week
no commentswrite comment
1 2 3 4 5
3 more votes to show rating
add to favorites
×
Save as Personal and add changes to this tab that will be seen only by you. Learn more ›
×
You can save this tab as Personal to edit and correct it or add notes. All changes will be seen only by you. Learn more »
launch autoscroll
font size
0
reset
guitar tuner
edit
Autoscroll
slow
fast
+/-
esc
set tempo
stop
Author
Difficulty
-----------------------------------------------------------------------------
                            Wolves - Vanilla Gloom
-----------------------------------------------------------------------------
                         www.vanillagloom.bandcamp.com

                                 from 'Vexed'

Tabbed by: Megan O'Kane
E-mail: N/A

Tuning: Standard


Intro
G|----------------------------------------------------------------------|
D|---------2---2-2---------1---1-1---------2---2-2---------1---1-1------|
A|-----------------2---2-2-------------------------2---2-2--------------|
E|-3---3-3-------------------------3---3-3------------------------------|

G|----------------------------------------------------------------------|
D|---------2---2-2---------1---1-1---------2---2-2---------1---1-1------|
A|-----------------2---2-2-------------------------2---2-2--------------|
E|-3---3-3-------------------------3---3-3------------------------------|

    There's a pain in my side       It stays with me all the time

G|----------------------------------------------------------------------|
D|---------2---2-2---------1---1-1---------2---2-2---------1---1-1------|
A|-----------------2---2-2-------------------------2---2-2--------------|
E|-3---3-3-------------------------3---3-3------------------------------|

    The throb of guilt....of the day                          Of the day



Pre Verse

G|---------------------------4---5--------------------------------------|
D|-----------------2---2-2-----------------------------------4---5------| x2
A|---------3---3-3---------2---3---------------------------2---3--------|
E|-3---3-3-------------------------3---3-3-1---1-1-0---0-0--------------|



Verse

G|----------------------------------------------------------------------|
D|----------------------------------------------------------------------|
A|---------3---3-3-----------------------------------------2---3--------|
E|-3---3-3---------0---0-0-2---2-2-3---3-3-1---1-1-0---0-0--------------|

    There's a hole in my head        A putrid void....unsaid

G|----------------------------------------------------------------------|
D|----------------------------------------------------------------------|
A|---------3---3-3-----------------------------------------2---3--------|
E|-3---3-3---------0---0-0-2---2-2-3---3-3-1---1-1-0---0-0--------------|

    I try to mend the wound     But I can't                  But I can't



Pre Chorus

G|---------------------------4---5--------------------------------------|
D|-----------------2-2-2-2-----------------------------------4---5------|
A|---------3-3-3-3---------2---3---------------------------2---3--------|
E|-3-3-3-3-------------------------3-3-3-3-1-1-1-1-0-0-0-0--------------|



Chorus

G|----------------------------------------------------------------------|
D|----------------------------------------------------------------------|
A|-----3---3-3-3--------------------------------------------------------|
E|-----------------3---0---0-0---0-0-0-3---3-3-3-2-3-7---7-7---7-7-7----|

    I bet you....the one           But I let....overcome

G|-------------------------------------------4--------------------------|
D|-----------------------------------------4----------------------------|
A|-------------------------------2---2-2-2-----0------------------------|
E|-5---5-5-5-3---0---0-0---0-0-0----------------------------------------|

    I try to....away        But I'm weak



Verse 2

G|----------------------------------------------------------------------|
D|----------------------------------------------------------------------|
A|---------3---3-3-----------------------------------------2---3--------|
E|-3---3-3---------0---0-0-2---2-2-3---3-3-1---1-1-0---0-0--------------|

    You don't know who I am         You've no idea....demand
G|----------------------------------------------------------------------|
D|----------------------------------------------------------------------|
A|---------3---3-3-----------------------------------------2---3--------|
E|-3---3-3---------0---0-0-2---2-2-3---3-3-1---1-1-0---0-0--------------|

    I'll scratch my lies....my thighs                        On my thighs



Pre Chorus 2

G|---------------------------4---5--------------------------------------|
D|-----------------2-2-2-2-----------------------------------4---5------|
A|---------3-3-3-3---------2---3---------------------------2---3--------|
E|-3-3-3-3-------------------------3-3-3-3-1-1-1-1-0-0-0-0--------------|



Chorus 2

G|----------------------------------------------------------------------|
D|----------------------------------------------------------------------|
A|-----3---3-3-3--------------------------------------------------------|
E|-----------------3---0---0-0---0-0-0-3---3-3-3-2-3-7---7-7---7-7-7----|

    I bet you....the one           I won't let....overcome

G|-------------------------------------------4--------------------------|
D|-----------------------------------------4----------------------------|
A|-------------------------------2---2-2-2-----0------------------------|
E|-5---5-5-5-3---0---0-0---0-0-0----------------------------------------|

    I fight and....away        I'm not weak



Bridge
(No bass)

    My wolves refuse to rest
    Their howls distract me from this mess
    Sweet slumber and silence suck this pain from my chest
    From my chest, from my chest -


G|---------------------------4---5-|
D|-----------------2-2-2-2---------| x3
A|---------3-3-3-3---------2---3---|
E|-3-3-3-3-------------------------|

                            From my chest

G|---------------------------------|
D|-----------------2---2---2---2---|
A|---------3-3-3-3-----------------|
E|-3-3-3-3-------------------------|



Outro

G|----------------------------------------------------------------------|
D|----------------------------------------------------------------------|
A|---------------------2-------1-2---------------------3-------3-2------|
E|-3---3-3-3-2-3-0---0---0-0-0-----5---5-5-5-4-5-1---1---1-1-1----------|

G|----------------------------------------------------------------------|
D|-------------5-------------------------------7------------------------|
A|-----------5---------2-------2-------------7---------3-------3-2------|
E|-3---3-3-3-----0---0---0-0-0---0-5---5-5-5-----1---1---1-1-1----------|



G|----------------------------------------------------------------------|
D|---------------2--2-2-2-2-2-2-2---------------------------------------| x2
A|---------------------------------0---0-0-0-0-0------------------------|
E|-3---3-3-3-3-3---------------------------------1--1-1-1-1-1-1-1-------|

   I hate you so much....to know        How much it hurts....all alone

G|----------------------------------------------------------------------|
D|-----------------2-2-2-2-2-2-2-2--------------------------------------|
A|---------------------------------0-0-0-0-0-0-0-0----------------------|
E|-3-3-3-3-3-3-3-3---------------------------------1-1-1-1-1-1-1-1------|
                                                               (constant)
   I hate you so much....to know        How much it hurts....all alone

G|----------------------------------------------------------------------|
D|-----------------2-2-2-2-2-2-2-2--------------------------------------|
A|---------------------------------0-0-0-0-0-0-0-0----------------------|
E|-3-3-3-3-3-3-3-3---------------------------------1-1-1-1-1-1-1-1-3----|
                                                               (ring out)
   I hate you so much....to know        How much it hurts....all alone
Suggest correction
Creating personal tab
Creating personal tab
You can edit any tab online and save it as your Personal.

You can edit, replace or remove any tab part or add personal notes – all changes will be seen only by you.

Personal tabs can be accessed anytime from any device, even offline.
Learn more »
Give kudos to tab author, rate the tab!
1 2 3 4 5
comments
print report bad tab
guest
You may want to rate the tab now too:
select rating
Wanna post a correction for this tab? Suggest correction