Oops, an error
Loading. Please wait.

Versa - Sober As A Ghost Bass Tab

57 views 1 this week
no commentswrite comment
1 2 3 4 5
please rate
add to favorites
launch autoscroll
font size
0
reset
guitar tuner
Autoscroll
slow
fast
+/-
esc
set tempo
stop
Help us to improve Ultimate-Guitar.com Take our survey!
×
Difficulty
novice
Intro
G-|---|   |-------------------------------------|
D-|---|   |-------------------------------------|
A-|---|   |-----7-7-----7-7-10-10-10-10-9-9-9-9-|
E-|-0-|x2 |-0-0-----0-0-------------------------|x4

G-|-----------------------------------------|
D-|-9r----9r--------12r---------11r---------|
A-|-7-7-7-7-7-7-7-7-10-10-10-10--9--9--9--9-|
E-|-----------------------------------------|

G-|--------------------------|
D-|-----9-----9-----12----11-|
A-|-----7-----7-----10-----9-|
E-|-0-0---0-0---0-0----0-0---|

Verse 1
G-|-------------------------------------------------------------------|
D-|-------------------------------------------------------------------|
A-|-7777777777777777777777777777--------------------------------------|
E-|------------------------------5-7-88888888888888888888888888888888-|

G-|-------------------------------------------------------------------|
D-|-------------------------------------------------------------------|
A-|-------------------------------------------------------------------|
E-|-0r---------------------------5-7-88888888888888888888888888888888-|

Verse 2
G-|-------------------------------------------------------------------|
D-|-------------------------------------------------------------------|
A-|-------------------------------------------------------------------|
E-|-0r---------------------------5-7-8r--------------8r---------------|

G-|-------------------------------------------------------------------|
D-|-------------------------------------------------------------------|
A-|-------------------------------------------------------------------|
E-|-0r---------------------------5-7-88888888888888888888888888888888-|

Back to Intro
G-|-----------------------------------------|
D-|-9r----9r--------12r---------11r---------|
A-|-7-7-7-7-7-7-7-7-10-10-10-10--9--9--9--9-|
E-|-----------------------------------------|

G-|--------------------------|
D-|-----9-----9-----12----11-|
A-|-----7-----7-----10-----9-|
E-|-0-0---0-0---0-0----0-0---|x4


Verse 3
G-|-------------------------------------------------------------------|
D-|-------------------------------------------------------------------|
A-|-7777777777777777777777777777--------------------------------------|
E-|------------------------------5-7-88888888888888888888888888888888-|

G-|-------------------------------------------------------------------|
D-|-------------------------------------------------------------------|
A-|-------------------------------------------------------------------|
E-|-0r---------------------------5-7-88888888888888888888888888888888-|


S.O.S.!
G-|-------------------------------------------------------------------|
D-|-------------------------------------------------------------------|
A-|------------------------------7-9-10r------------------------------|
E-|-0r---------------------------5-7-88888888888888888888888888888888-|

Cruise Control!
G-|----------------------------------------------------------------------|
D-|----------------------------------------------------------------------|
A-|------------------------------7-9-10r---------------------------------|
E-|-0r---------------------------5-7-88888888888888888888888888888888-0r-|


Bridge
G-|-------------------------------|
D-|-7/9-9-9-9-7/9-9-9-9--9-7---5r-|
A-|-5/7-7-7-7-5/7-7-7-7--7-5-0-3r-|
E-|-------------------------------|
			     .
G-|-------------------------------|
D-|-7/9-9-9-9-7/9-9-9-9--9-7---7r-|
A-|-5/7-7-7-7-5/7-7-7-7--7-5-0-5r-|
E-|-------------------------------|
			     .
G-|----------------------------------------------------------|
D-|----------------------------------------------------------|
A-|-5h7-7-7-7-5h7-7-7-7-10-10-10/3-3-3-3-3-3-3-3-3-3-3-3-3-3-|
E-|----------------------------------------------------------|

G-|----------------------------------------------------------|
D-|----------------------------------------------------------|
A-|-5h7-7-7-7-5h7-7-7-7-10-10-10/5-5-5-5-5-5-5-5-5-5-5-5-5-5-|
E-|----------------------------------------------------------|

G-|---------------------------------------------------------------------|
D-|---------------------------------------------------------------------|
A-|-5h7-7-7-7-7-5h7-7-7-7-7-10-10-10-10-3-3-3-3-3-3-3-3-3-3-3-3-3-3-3-3-|
E-|---------------------------------------------------------------------|

G-|---------------------------------------------------------------------|
D-|---------------------------------------------------------------------|
A-|-5h7-7-7-7-7-5h7-7-7-7-7-10-10-10-10-5-5-5-5-5-5-5-5-5-5-5-5-5-5-5-5-|
E-|---------------------------------------------------------------------|

G-|---------------------------------------------------------------------|
D-|---------------------------------------------------------------------|
A-|-5h7-7-7-7-7-5h7-7-7-7-7-10-10-10-10-3-3-3-3-3-3-3-3-3-3-3-3-3-3-3-3-|
E-|---------------------------------------------------------------------|
						YEAH!
G-|---------------------------------------------------------------------|
D-|---------------------------------------------------------------------|
A-|-5h7-7-7-7-7-5h7-7-7-7-7-10-10-10-10-5-5-5-5-5-5-5-5-5-5-5-5-5-5-5-5-|
E-|---------------------------------------------------------------------|

SOLO
G-|---------------------------------------------------------------------------|
D-|---------------------------------------------------------------------------|
A-|-5-7-7-5-7-7-5-7-7-5-7-7-10-10-10-10-3-5-7-5-7-9-7-9-10-9-10-12-10-9-10-9\-|
E-|---------------------------------------------------------------------------|

G-|--------------------------------------------------------------------|
D-|--------------------------------------------------------------------|
A-|-5-7-7-5-7-7-5-7-7-5-7-7-10-10-10-12-10-9-10-9-7-12-10-9-10-9-7-9-7-|
E-|--------------------------------------------------------------------|

G-|---------------------------------------------------------------------------|
D-|---------------------------------------------------------------------------|
A-|-5-7-7-5-7-7-5-7-7-5-7-7-10-10-10-10-3-5-7-5-7-9-7-9-10-9-10-12-10-9-10-9\-|
E-|---------------------------------------------------------------------------|

ENDING
G-|-------------------------------|
D-|-7/9-9-9-9-7/9-9-9-9--9-7---5r-|
A-|-5/7-7-7-7-5/7-7-7-7--7-5-0-3r-|
E-|-------------------------------|

Suggest correction new What's this?
You can suggest a correction to this tab. Community and Mods will review your correction and vote to approve or reject it.
comments
We did not receive enough feedback on this tab! Please rate:
print report bad tab
1 2 3 4 5
guest
You may want to rate the tab now too:
select rating
Please do not post tabs as comments. Select "correction" instead!