Oops, an error
Loading. Please wait.

Viewers Like You - Through My Eyes Bass Tab

75 views 1 this week
no commentswrite comment
1 2 3 4 5
3 more votes to show rating
add to favorites
launch autoscroll
font size
0
reset
guitar tuner
Autoscroll
slow
fast
+/-
esc
set tempo
stop
Help us to improve Ultimate-Guitar.com Take our survey!
×
Author
Difficulty
novice
Intro/Chourus/Solo

G----------------------------------------------|
D----------------------------------------------|
A------------0-0-0-0--3-3-333------------------|
E---0-0-000------------------3-33-22-----------|


Last Chourus


G-----------------------17-17-171717-------------|
D------------------------------------17-17-16-16-|
A------------0-0-0-0-----------------------------|
E---0-0-000--------------------------------------|
Suggest correction
Give kudos to tab author, rate the tab!
1 2 3 4 5
comments
print report bad tab
guest
You may want to rate the tab now too:
select rating
Wanna post a correction for this tab? Suggest correction