Oops, an error
Loading. Please wait.

Vintage - Statement Tab

447 views 1 this week
no commentswrite comment
1 2 3 4 5
please rate
add to favorites
launch autoscroll
font size
0
reset
how to read this tab
guitar tuner
Autoscroll
slow
fast
+/-
esc
set tempo
stop
Help us to improve Ultimate-Guitar.com Take our survey!
×
Difficulty
advanced
This is not the official line-up of the new album statement by vintage but these are the 
that are being considered. Freddi (Ryan Laing) plays both guitar parts on the recorded 
but live they just play 1 so... enjoy these are 100% correct.

Sick
I'll be back
Somebody
Airhead
Kids
Mr Tarzan

Sick:

Verse-
  E     B   C#   G# A   E     B
[--------------------------------]
[-0---4---5---4---2---0---4------]
[-1---4---6---5---2---1---4------]
[-2---4---6---6---2---2---4------]
[-2---2---4---6---0---2---2------]
[-0-----------4-------0----------]x2

    A   B   E       A     B   E
[-----------0--------------0-----------------]
[---2---4---0------2---4---0------2---4------]
[---2---4---1------2---4---1------2---4------]
[---2---4---2------2---4---2------2---4------]
[---0---2---2------0---2---2------0---2------]
[-----------0--------------0-----------------]

Chorus-

      E     D       C#           A         B
[-------222----------------------------]
[---00--333--555555-----222---44444----]
[---11--222--666666-----222---44444----]
[---22--000--666666-----222---44444----]
[---22-------444444-----000---22222----]
[---00---------------------------------]


Interlude:

          E               C#             E             C#       B
[-----------------------------------------------]
[---99999999---66666666---99999999---66666464---]
[---99999999---66666666---99999999---66666464---]
[---99999999---66666666---99999999---66666464---]
[---77777777---44444444---77777777---44444242---]
[-----------------------------------------------]


Verse 2-

(Gtr 1 does the same as verse 1)

Gtr2:
          E           B           C#           G#         A
[--------------------------------------------------]
[--------------------------------------------------]
[--------------------------------------------------]
[---------------4444444466666666--------22222222---]
[-------2222222222222222444444446666666600000000---]
[-------00000000----------------44444444-----------]

[------------------------------]
[-----------4444444454454454---]
[-----------4444444444444444---]
[-----------4444444444444444---]
[---222222222222222222222222---]
[---00000000-------------------]x2

2nd Chorus: (1st Gtr does the same as last chorus)

Gtr 2-

[-----------------------------------]
[-----------------------------------]
[----------------1111111121121121---]
[22222222444444442222222222222222---]
[00000000222222222222222222222222---]
[----------------0000000000000000---]x2

Gtr 1 & 2 play A B E D C# A B (Like the end of the last chorus)

Interlude-

Outro-

[------------------------------------------------0--]
[---22222222--44444444----222222222--44445454----0--]
[---22222222--44444444----222222222--44444444----1--]
[---22222222--44444444----222222222--44444444----2--]
[---00000000--22222222----000000000--22222222----2--]
[------------------------------------------------0--]


Lyrics:-

I'm Feeling sick,
I think i swallowed a toothpick,
I miss Michelle again.
I'm going mad,
without her I am really sad,
I miss Michelle again.
wooh,
I wish i could be there,
I think I really care,
it's all too much,
from that very first touch,
I think i'll miss michelle quite alot!


I'll be back:


Intro & Verse (Gtr 1 & 2)
[-----------------------------------------------]
[-----------------------------------------------]
[-----------------7----------------------7------]
[---9-9----5-5----7--------9-9----5-5----7------]
[---9-9----5-5----5--------9-9----5-5----5------]
[---7-7----3-3-------------7-7----3-3-----------]

[------------------]
[------------------]
[------4-----------]
[---5--4--3--7-----]
[---5--2--3--7-----]
[---3-----1--5-----]

Interlude (Gtr 1 & 2)
[-------------------------]
[-------------------------]
[-----------------7-------]
[---9-9----5-5----7-------]
[---9-9----5-5----5-------]
[---7-7----3-3------------]x4

Solo: (gtr2 plays verse in background)
[-----------------------------------------------------------------]
[---10(12)(12)(12)(12)10-7-9--------------------------------------]
[--------------------------97-7-7--------7----7---7---7----7------]
[----------------------------9-9-979999---979--979-979-979--97----]
[-------------------------------------------------------------9---]
[-----------------------------------------------------------------]

[-----------------------------------------------------------------]
[-----------------------------------------------------------------]
[--------------------------------16161616-14------14------14------]
[--------------------------121416-----------161416--161416--161416]
[---7------------------1214---------------------------------------]
[----9-7-7-7-7-10-12-14-------------------------------------------]

[------------------------------------------]
[------------------------------------------]
[---14------14-----------------------------]
[-----161416--161412-----------------------]
[-------------------1412-------------------]
[-----------------------14121212101077-----]

end on G

have to, move to,
berklee, and i dont want too,
she said, we have to,
chumpy's after you!
not, moving,
for him to destroy it all
what, about,
michelle i will not leave her!


Somebody:

Intro & Verse (Gtr 1)
[------------------------------------]
[------------------------------------]
[------------------------------------]
[---999999-444444-222222-444444------]
[---777777-222222-000000-222222------]
[------------------------------------]

(Gtr2) (Drop D tuning)
[--------------------------------------]
[--------------------------------------]
[--------------------------------------]
[---00000000777777775555555577777777---]
[---00000000777777775555555577777777---]
[---00000000777777775555555577777777---]

Chorus (Gtr 1)
[--------------------------------------------]
[--------------------------------------------]
[--------------------------------------------]
[---99999999-55555555----------77777777------]
[---99999999-55555555-55555555-77777777------]
[---77777777-33333333-55555555-55555555------]
[---------------------33333333---------------]

(Gtr2)
[---------------------------------------------]
[---------------------------------------------]
[---------------------------------------------]
[---0000000088888888333333331010101010101010--]
[---0000000088888888333333331010101010101010--]
[---0000000088888888333333331010101010101010--]

Solo (Gtr 1)
[------------------------------------------------------------]
[---15(17)12-------------------------------------------------]
[-----------1412~------12------12----------------------------]
[------------------------141214--141214---14(15)12-----------]
[-------------------------------------------------1412-------]
[-----------------------------------------------------1512---]

[----------------------------------------1512----------------------]
[---------------------------------1214-------1512------------------]
[-------------------14(16)(14)1214---------------1412--------------]
[------------1214------------------------------------1412----------]
[-------12-14--------------------------------------------141312----]
[---1215-------------------------------------------------------1512]

(Gtr 2)

[--------------------------------------------------------]
[--------------------------------------------------------]
[--------------------------------------------------------]
[---99~-----99~-----99~-----99~-----99~-----99~----------]
[---77~-----77~-----77~-----77~-----77~-----77~----------]
[--------------------------------------------------------]

Outro Gtr 1

[-------------------------------------------------------------]
[-------------------------------------------------------------]
[-------------------------------------------------------------]
[---222222224444444422222222444499442222222244444444--7~------]
[---000000002222222200000000222277220000000022222222--9~------]
[-------------------------------------------------------------]


you think you are somebody,
but don't you wonder why,
you screw up everybody,
so why do you even try.

I really don't like you,
I wish i'd see the day,
that you would leave this city,
I think i'd even pay.

there once was a time
i felt sorry for you
then i saw you for what you are
now i hate you too

so just leave leave leave
unless you do one thing
redeem yourself once again
then you can be seen!

Airhead:

Intro & Verse
[-----------------------------------------------------------------]
[-----------------------------------------------------------------]
[-----------------------------------------------------------------]
[---7-77-7-77-7-77-7-77-------------------------------------------]
[---5-55-5-55-5-55-5-55-7-77-7-77-7-77-7-77-9-99-9-99-9-99-9-99---]
[-----------------------5-55-5-55-5-55-5-55-7-77-7-77-7-77-7-77---]
 1st Time                       2nd Time
[---------------------------]  [--------]
[---------------------------]  [--------]
[---------------------------]  [--------]
[---------------------------]  [--------]
[---5-55-5-55-5-55-5-55-----]  [---5~---]
[---3-33-3-33-3-33-3-33-----]  [---3~---]

[-------------------------------------------------]
[-------------------------------------------------]
[---7777777777------------------------------------]
[---7777777777-777777777-999999999-555555555------]
[---5555555555-777777777-999999999-555555555------]
[--------------555555555-777777777-333333333------]

Chorus
[------------------------------------------------------------]
[------------------------------------------------------------]
[------------------------------------------------------------]
[---------------------------------------------------9~-------]
[---5555555577777777555555557777777755555555777777777~-------]
[---333333335555555533333333555555553333333355555555---------]

Solo
[------------------------------------------------------------------]
[------------------------------------------------------------------]
[--------------------------5--7(9)5-77(9)5-77(9)5-77(9)5-77(9)5----]
[-----------3--5(7)3--3-5/7--------7------7------7------7------7---]
[---------35--------5----------------------------------------------]
[---1-3-5----------------------------------------------------------]

[---------------------------]
[---------------------------]
[---------------------------]
[---53----------------------]
[-----53--------------------]
[-------531-1/10------------]

Play intro and then end on D.

As i came, the alleyway,
you hated us did you not say,
chumpy's walking in the night,
bring it on then if you wanna fight

I hate himnow that big airhead,
so after he finished whatever he said,
i will protect her that michelle,
if i can get out of this cell.

I never thought,
That were i got taught,
that she'd be there,
waitin for me!

Kids:

Intro & Verse
[------------------------------]
[------------------------------]
[------------------------------]
[---9-xx97--xxx-9999977-14-----]
[---7-xx75--xxx-7777755-12-----]
[------------------------------]

Interlude
[----------------------------------]
[----------------------------------]
[----------------------------------]
[---9999977-1414--9999977-1414-----]
[---7777755-1212--7777755-1212-----]
[----------------------------------]

Solo
[--------------------------------------------------------]
[---15(17)(17)(17)1512-----------------------------------]
[---------------------1414-14121412141214121412----------]
[----------------------------------------------1414------]
[--------------------------------------------------------]
[--------------------------------------------------------]

[-------------------------------------------------------------------]
[---------------------------------15----15----15----15--------------]
[----------------121414-14--14(16)--(16)--(16)--(16)--1212----------]
[---------121414------------------------------------------1414------]
[---121414----------------------------------------------------------]
[-------------------------------------------------------------------]

[-----------------------------1512---------------------------]
[------------------1215151515-----1512-----------------------]
[-----------121414--------------------1412-------------------]
[---12141414------------------------------1412---------------]
[---------------------------------------------141312---------]
[---------------------------------------------------1512~----]

Kids Rock,
Kids Rule,
Kids are crazy and they are cool,
drunk kids,
wild kids,
and they jump around too!

Mr Tarzan:

Intro (follow this strumming pattern with all chords during the song)
[--------------------]
[-----3-3-3-3--3~----]
[-----0-0-0-0--0~----]
[-----0-0-0-0--0~----]
[---2--2-2-2-2-------]
[---3--3-3-3-3-------]

    G
Mr Tarzan can you give me a drink,
    D
I've commited crimes you would'nt think,
    C                        G F#/G
oh no, I don't deserve her.
    G
Mr Tarzan can you order a cab,
    D
I've gotta leave cos' i'm goin' mad
    C                       G F#/G
ooh ooh, I can't desert her.
    Em                  C
Mr tarzan i need her back, ooh,
    G         D
for good, oh yeah,
    Em
Mr tarzan i'd do anything,
    C
shower her with gifts and everything,
    G                             D
i need her back so i can see her face,

ooh yeah...

Thats about it, Freddi does play around with the chords and put little licks in but 
good enough, i rate the album **** and its not even out yet! lol Freddi uses drop d tuning 
'someone' so you tune down the low E so it sounds like the D (4th String) Easy! lol!
Suggest correction
Give kudos to tab author, rate the tab!
1 2 3 4 5
comments
print report bad tab
guest
You may want to rate the tab now too:
select rating
Please do not post tabs as comments. Select "correction" instead!