Oops, an error
Loading. Please wait.

Virtua Tennis - Beginning A Destiny Tab

28 views 1 this week
no commentswrite comment
1 2 3 4 5
please rate
add to favorites
launch autoscroll
font size
0
reset
how to read this tab
guitar tuner
Autoscroll
slow
fast
+/-
esc
set tempo
stop
Help us to improve Ultimate-Guitar.com Take our survey!
×
Author
Difficulty
intermediate
Virtua Tennis - Beginning A Destiny (Dreamcast)
Tabbed by LTRobson 16/06/07

Standard tuning
Fret bass notes with thumb
Underscores are palm mutes

  C#                                           F#       A
|-----------------------------------------------------------|
|-7--6-6---------6--5-5---------5--4-4--------------8-------|
|-6--6-6---------6--4-4---------4--4-4-----8------6---6-8-6-|
|--------------------------------------------6-8------------|
|--------4-4-4-4--------4-4-4-4--------4-4------------------|
|-----------------------------------------------------------|
         - - - -        - - - -        - -

  C#
|----------------------------------------------|
|-7--6-6---------6--5-5---------5--4-4---------|
|-6--6-6---------6--4-4---------4--4-4-----8\6-|
|----------------------------------------------|
|--------4-4-4-4--------4-4-4-4--------4-4-----|
|----------------------------------------------|
         - - - -        - - - -        - -

  E
|---------------------------------|
|-------2-----4-----2---------2---|
|-4-----------------------4-------|
|---4-2---4-2---4-2---4-2---4---4-|
|---------------------------------|
|---------------------------------|

  F#
|---------------------------------|
|-------2-----4-----5-----4---2---|
|-4-------------------------------|
|---4-2---4-2---4-2---4-2---4---4-|
|---------------------------------|
|---------------------------------|

  E
|---------------------------------|
|-------2-----4-----2---------2---|
|-4-----------------------4-------|
|---4-2---4-2---4-2---4-2---4---4-|
|---------------------------------|
|---------------------------------|

  F#
|-------------------------2-|
|-------2-----4-----5-------|
|-4-------------------------|
|---4-2---4-2---4-2---4-2---|
|---------------------------|
|---------------------------|
Suggest correction
Give kudos to tab author, rate the tab!
1 2 3 4 5
comments
print report bad tab
guest
You may want to rate the tab now too:
select rating
Wanna post a correction for this tab? Suggest correction