Oops, an error
Loading. Please wait.

Visions - Nightmares Bass Tab

47 views 1 this week
no commentswrite comment
1 2 3 4 5
3 more votes to show rating
add to favorites
launch autoscroll
font size
0
reset
guitar tuner
Autoscroll
slow
fast
+/-
esc
set tempo
stop
Help us to improve Ultimate-Guitar.com Take our survey!
×
Author
Difficulty
Tuning
novice
D A D G B E
NIGHTMARES by Visions

Tabbed By : yummysoup 
e-mail: yummy_soup@hotmail.com

Tuning:Drop D

G--------------------------------------|
D--------------------------------------| 
A---------------------3-5-0-1-----1----| 
D-0--0-0--0-0--0---------------------5-|(introx1)

|---------|  
|---------|                        
|-1-------|                    
|----0---3|(riffx6)

|------------------------------------------------------------------------|
|------------------------------------------------------------------------|
|------------------------------------------------------------------------|
|-0--3-3--0-1-1---0-000000-0-00000-0-3-3--0-1-1--0-000000-0-000000-slide-|(build upx1)

|-------------------------------------|  
|-------------------------------------|
|-------------------------------------| 
|-0-0-0-0-4-4-3-1-0-0-0-0---000-1-3-4-|(punk beatsx1)

|---------------------------------------|  
|---------------------------------------|
|---------------------------------------| 
|-0-0-0-0-4-4-3-1-0-0-0-0---000-6-000-1-|(punk beatsx1)

|-------------------------------------|  
|-------------------------------------|
|-------------------------------------| 
|-0-0-0-0-4-4-3-1-0-0-0-0---000-1-3-4-|(punk beatsx1)

|---------------------------------------|  
|---------------------------------------|
|---------------------------------------| 
|-0-0-0-0-4-4-3-1-0-0-0-0---000-6-000-1-|(punk beatsx1)

|--------|  
|--------|
|--------| 
|-slide--|(drum rollx1)

|--------------------|
|--------------------|
|--------------------|
|-1-1-1--3-4-3--0----|(build upx2)

|--------------------------------------------------------------|
|--------------------------------------------------------------|
|--------------------------------------------------------------|
|-6-0-0-1-0---0-0-0-0-0-0-0-0-0-0---6-0-0-1-0--0-0-1-1-1-3-4-3-|(twostepx4)

|---------------|
|---------------|
|---------------|
|-0--1--1--1--0-|(riffx1)

soft guitar, bass comes in half way

|------------------------------------------------|
|------------------------------------------------|
|--------------------1--1-1--1-1-00000000000000--|
|-0---0-0---0---0-0------------------------------|(riffx1)

|-------------------------------------------------------|
|-------------------------------------------------------|
|------------------------------1-1-1--1-1-1-1--1-000000-|
|-0-0---0--0-0--000-2222-333----------------------------|(4/4x2)
Suggest correction
Give kudos to tab author, rate the tab!
1 2 3 4 5
comments
print report bad tab
guest
You may want to rate the tab now too:
select rating
Wanna post a correction for this tab? Suggest correction