Oops, an error
Loading. Please wait.

Visions - One Life Bass Tab

67 views 1 this week
no commentswrite comment
1 2 3 4 5
please rate
add to favorites
launch autoscroll
font size
0
reset
guitar tuner
Autoscroll
slow
fast
+/-
esc
set tempo
stop
Help us to improve Ultimate-Guitar.com Take our survey!
×
Author
Difficulty
Tuning
novice
D A D G B E
drop d

|------|
|------|
|------|
|-0/3--|

|--------------------------|
|--------------------------|intro.(x3)
|-111----------------------|
|-----222-333-222-2-3-5--2-|

|------------------------------------------|
|------------------------------------------|
|-111--------------------------------------|
|-----222-333-222-2-3-5--0----0----0-0-0---| 

|-------------------------------------------------------|
|-------------------------------------------------------|
|-------------------------------------------------------|
|-2-5-5-5-5-5-5--2-5-7-7-7-7---2-5-5-5-5-5-5-2-5-0-0-0-0|

|---------------------------------------------------|
|---------------------------------------------------|bass riff.(x3)
|---------------------------------------------------|
|-2-5-5-5-5-5-5--2-5-7-7-7-7---7-5-7-2-2-2-2--2-5-2-| 

|-------| |------------| |-----------------------| 
|-------| |------------| |-----------------------|Twostep
|-----5-| |------------| |-------------------1111|
|-0-----| |-5-2-3-2-2--| |--555-222-333-222------|


Suggest correction
Give kudos to tab author, rate the tab!
1 2 3 4 5
comments
print report bad tab
guest
You may want to rate the tab now too:
select rating
Please do not post tabs as comments. Select "correction" instead!