Oops, an error
Loading. Please wait.

Visions - Victims Bass Tab

42 views 1 this week
no commentswrite comment
1 2 3 4 5
please rate
add to favorites
launch autoscroll
font size
0
reset
guitar tuner
Autoscroll
slow
fast
+/-
esc
set tempo
stop
Help us to improve Ultimate-Guitar.com Take our survey!
×
Author
Difficulty
Tuning
novice
D A D G B E
VICTIMS DROP D

Tabbed By : yummysoup
e-mail: yummy_soup@hotmail.com

|-----------------------------------------|  
|-----------------------------------------|                        
|-----------------------------------------|                    
|-7-7b----3-3b---7-7b----3-3b----1-1-1-1-1|(begginningx2)

|--------------|  
|--------------|                        
|--------------|                    
|-1----1----0--|  

|------|  
|------|                        
|------|                    
|-0----|  (drum roll x1)

|-------------------------------------------------------------|  
|-------------------------------------------------------------|
|-------------------------------------------------------------|
|-7-77777777777-3-33333-4-44-1-11---7-77777777777-3-33333-3-1-(punk beats x2)

|--------------------------------------------------|  
|--------------------------------------------------|  
|--------------------------------------------------|
|-0----4-3-3-0--1/3-0---4-3-1--1-1-3b-3-3-3--1-3-4-|(riffx1)

|----------------------------------------------------------|  
|----------------------------------------------------------|
|----------------------------------------------------------|
|-0---0-1-0-1b---0-0-0-6-6-6-6b--0---0-1-0-1b--0-0-0--6-5-3|(riffx1)


|---------------------------------------------------------|  
|---------------------------------------------------------|
|---------------------------------------------------------|
|-0---0-1-0-1b---0-0-0-6-6-6-6b--4/3-4/3-4/3-4/3--1-1-1-1-|(riffx1)


|-----------------------------------------------------------------|
|-----------------------------------------------------------------|
|-----------------------------------------------------------------|
|-0-0-1-0-0-1--0-1-0-0-0-0-6-6-6-6b--0-0-1-0-0-1-0-1-0-0-0-0-6-5-3|(riffx1)

|--------------------------------------------------------|  
|--------------------------------------------------------|
|--------------------------------------------------------|
|-0--0-1-0-1b---0-0-0-6-6-6-6b--4/3-4/3-4/3-4/3--1-1-1-1-| (riffx1)

|-------------------------------------|  
|-------------------------------------|                        
|----1----------------1---------------|                    
|-0------4--3-1-0----------4---3-1----|(tom beatx1)

|----------------------------------------|  
|----------------------------------------|                        
|------------------1-11111---------------|                    
|-0-00000000000-------------4-44--3--1---| (punk beatsx1)

|-------------------------------------------------|  
|-------------------------------------------------|                        
|-------------------------------------------------|                    
|-0-00000000000--3--6b-0-3------------------------|(punk beatsx1)

|-------------------------------------------------|  
|-------------------------------------------------|                        
|-----------------1-11111-------------------------|                    
|-0-00000000000-------------4-44--3--1------------|(punk beatsx1)

|-------------------------------------------------|  
|-------------------------------------------------|                        
|-------------------------------------------------|                    
|-0-00000000000--3-4-3-1--------------------------|(punk beatsx1)

|--------------------------------------|  
|--------------------------------------|                        
|--------------------------------------|                    
|--0-0-0-0-0-00000000-3-4-3-1----------|(build upx1)

|----------------------------------------------------|  
|----------------------------------------------------|
|----------------------------------------------------|
|-0-000000--3--6b-0-3---0-000000-1-0000-3-0000-3-4-3-|(two stepx1)


|-----------------------------------------|  
|-----------------------------------------|
|-----------------------------------------|                    
|-0-000000--3--6b-0-3---0-000000-3-4-3-1--|(two stepx1)

|----------------------------------------------------|  
|----------------------------------------------------|
|----------------------------------------------------|
|-0-000000--3--6b-0-3---0-000000-1-0000-3-0000-3-4-3-|(4/4x1)

|-------------------------------------------|  
|-------------------------------------------|
|-------------------------------------------|                    
|-0-000000--3--6b-0-3---0-000000-3-4-3-1--0-|(4/4x1)
Suggest correction
Give kudos to tab author, rate the tab!
1 2 3 4 5
comments
print report bad tab
guest
You may want to rate the tab now too:
select rating
Please do not post tabs as comments. Select "correction" instead!