Oops, an error
Loading. Please wait.

Voodoo Children - Vengeance Bass Tab

106 views 1 this week
no commentswrite comment
1 2 3 4 5
3 more votes to show rating
add to favorites
launch autoscroll
font size
0
reset
guitar tuner
Autoscroll
slow
fast
+/-
esc
set tempo
stop
Help us to improve Ultimate-Guitar.com Take our survey!
×
Author
INTRO PT.1:
G------------------------------|
D------------------------------|
A------------------------------|
E0-0-0-0-0-0-0-0-0-0-0-0-0-0-0-|
INTRO PT.2:
G-------------------------6-|
D-------------3333----------|
A-----2222--------3333------|
E-1111----1111--------0000--|

CHORUS x4:
G------------------------------------------|
D------------------------------------------|
A------------------------------------------|
E-222233335544223h4h4-33445566121212-7/12~-|

BASS SOLO:
G5344/65344/6-------------------|
D------------5344/6-------------|
A------------------5344/6-------|
E------------------------5344/6-|

Solo Cont'd:
G--------------------------|
D--------------------------|
A-----33333----------------|
E55555-----333331111101234-|

Solo Cont'd:
G----------------------------|
D----------------98----------|
A----------77777^--87--------|
E6667655565----------876789--|

CHORUS
G------------------------------------------|
D------------------------------------------|
A------------------------------------------|
E-222233335544223h4h4-33445566121212-7/12~-|

ENDING:
G-----------|
D------7----|
A----5^-3---|
E--------30-|
Suggest correction
Give kudos to tab author, rate the tab!
1 2 3 4 5
comments
print report bad tab
guest
You may want to rate the tab now too:
select rating
Wanna post a correction for this tab? Suggest correction