Oops, an error
Loading. Please wait.

Voxhaul Broadcast - You Are The Wilderness Tab

6,179 views 21 this week
2 commentsread comments
1 2 3 4 5
x 10
add to favorites
launch autoscroll
font size
0
reset
how to read this tab
guitar tuner
Autoscroll
slow
fast
+/-
esc
set tempo
stop
Help us to improve Ultimate-Guitar.com Take our survey!
×
-------------------------------------------------------------------------------
                           Voxhaul broadcast - You are the wilderness
-------------------------------------------------------------------------------
Tabbed by: TheCappinator

http://www.voxhaulbroadcast.com/

Tuning: Standard 

Guitar 1

Main riff: Play in Intro, verse and outro

e|---------------------------------------------------------------------------|
B|---------------------------------------------------------------------------|
G|---------------------------------------------------------------------------|
D|---------------------------------------------------------------------------|
A|--------------------5------------------------------------------------------|
E|--0-0-0-0-0-0-0-5h7--------------------------------------------------------|

Chorus: 'There's a wolf in my heart...'

e|--8------5------0----------------------------------------------------------|
B|--8------5------0----------------------------------------------------------|
G|--9------5------0----------------------------------------------------------|
D|--10-x8--7-x8---2--x16-----------------------------------------------------|
A|--10-----7------2----------------------------------------------------------|
E|--8------5------0----------------------------------------------------------|

Post Chorus: 

e|---------------------------------------------------------------------------|
B|---------------------------------------------------------------------------|
G|---------------------------------------------------------------------------|
D|---------------------------------------------------------------------------|
A|-7---6---5---4--3--2---1---2-----------------------------------------------|
E|---------------------------------------------------------------------------|
Then go back into the main riff

End on
e|--0------------------------------------------------------------------------|
B|--0------------------------------------------------------------------------|
G|--0------------------------------------------------------------------------|
D|--2------------------------------------------------------------------------|
A|--2------------------------------------------------------------------------|
E|--0------------------------------------------------------------------------|


Guitar 2 

Main riff: Play in intro and after the post chorus
Play twice
e|------------------------|------------------5---3---------------------------|
B|--3h5p3-----------------|---3h5p3------------------------------------------|
G|--------4---------------|----------4---------------------------------------|
D|-----------5/7--5-------|--------------5-----------------------------------|
A|-------------------7--5-|--------------------------------------------------|
E|------------------------|--------------------------------------------------|

e|------------------------|--------------------------------------------------|
B|--3h5p3-----------------|---3h5p3-------------3----------------------------|
G|--------4---------------|----------4-------2-----4-------------------------|
D|-----------5/7--5-------|--------------5-----------------------------------|
A|-------------------7--5-|--------------------------------------------------|
E|------------------------|--------------------------------------------------|


Verse 1: Let every note ring
  Play once
e|--11b---16b--11b-|---------------------------------------------------------|
B|-----------------|---------------------------------------------------------|
G|-----------------|--7--------9---------x4----------------------------------|
D|-----------------|----------------9----------------------------------------|
A|-----------------|---------------------------------------------------------|
E|-----------------|---------------------------------------------------------|

Chorus: 'There's a wolf in my heart...'

e|-------------12----x4---14-----x2---15----x2-------------------------------|
B|-12-----x8------12---------12----------12----------------------------------|
G|----12---------------------------------------------------------------------|
D|---------------------------------------------------------------------------|
A|---------------------------------------------------------------------------|
E|---------------------------------------------------------------------------|


Verse 2: Let all the notes ring
  Play once
e|----------------|----------------------------------------------------------|
B|----------------|----------------------------------------------------------|
G|-3b---3b---3b---|--7-------9--------x3-------------------------------------|
D|----------------|--------------9-------------------------------------------|
A|----------------|----------------------------------------------------------|
E|----------------|----------------------------------------------------------|

Main riff variation
Play after the second post chorus
Play twice
e|------------------------|----------------5---3-----------------------------|
B|--3h5p3-----------------|--3h5p3-------------------------------------------|
G|---------4--------------|---------4----------------------------------------|
D|-----------5/7-5--------|-------------5------------------------------------|
A|-------------------7--5-|--------------------------------------------------|
E|------------------------|--------------------------------------------------|

e|------------------------|-------------15-15-15-15--------------------------|
B|-3h5p3------------------|-3h5p3--------------------------------------------|
G|--------4---------------|-------4------------------------------------------|
D|-----------5/7-5--------|----------5---------------------------------------|
A|-------------------7--5-|--------------------------------------------------|
E|------------------------|--------------------------------------------------|

Outro: 'You are the wilderness'
Play twice
e|-17-15---------|--17-15---------|-17-15-------|-17--15---17b-17b-17b-17b---|
B|--------15--17-|--------15-17-15|-------15-17-|-------15-------------------|
G|---------------|----------------|-------------|----------------------------|
D|---------------|----------------|-------------|----------------------------|
A|---------------|----------------|-------------|----------------------------|
E|---------------|----------------|-------------|----------------------------|

End on
e|---------------------------------------------------------------------------|
B|-17------------------------------------------------------------------------|
G|---------------------------------------------------------------------------|
D|---------------------------------------------------------------------------|
A|---------------------------------------------------------------------------|
E|---------------------------------------------------------------------------|
************************************

| /   slide up
| \   slide down
| h   hammer-on
| p   pull-off
| ~   vibrato
| +   harmonic
| x   Mute note
| b   Bend
| pb  Pre-bend
| br  Bend release
| pbr Pre-bend release
| brb Bend release bend

************************************
Suggest correction
comments
print report bad tab
2 comments total.
+2 reply
lpwjbklyn 452 Apr 01, 2013 12:40 PM

Damn man--I really wanted to tab this out but you did a perfect job here. Don't see the point in reinventing the wheel! Really great tab--five stars.

0 reply
chloe.69330 10 May 30, 2015 07:15 AM

Vraiment bien fait le site mais pour les débutants à la guitare ça a l'air compliquer.

guest
You may want to rate the tab now too:
select rating
Wanna post a correction for this tab? Suggest correction