Oops, an error
Loading. Please wait.

Walter Day - Three Lies Tab

113 views 1 this week
no commentswrite comment
1 2 3 4 5
3 more votes to show rating
add to favorites
launch autoscroll
font size
0
reset
how to read this tab
guitar tuner
Autoscroll
slow
fast
+/-
esc
set tempo
stop
Help us to improve Ultimate-Guitar.com Take our survey!
×
three lies


walter day


TRANSCRIBED BY RUDY GUZMAN


guzman_84@hotmail.com


i found this song on youtube, here is walter day playing the song
http://www.youtube.com/watch?v=5Mi3Ne1PWdI


   pa pa pa pa pa pa paaammmm     pa pa pa pa pa pa paaammmm                                     
e:----------------1-1-1-1-1-1-1-----------------1-1-1-1-1-1-1-|
B:-1-1-1-1-1-1-1--1-1-1-1-1-1-1--1-1-1-1-1-1-1--1-1-1-1-1-1-1-|
G:-2-2-2-2-2-2-2--2-2-2-2-2-2-2--2-2-2-2-2-2-2--2-2-2-2-2-2-2-|
D:-2-2-2-2-2-2-2--3-3-3-3-3-3-3--2-2-2-2-2-2-2--3-3-3-3-3-3-3-|
A:-0-0-0-0-0-0-0--3-3-3-3-3-3-3--0-0-0-0-0-0-0--3-3-3-3-3-3-3-|
E:----------------1-1-1-1-1-1-1-----------------1-1-1-1-1-1-1-|

                                                  bum bum bum bum    
e:------------1-1-1--1-1-1--------------------------------|
B:-1-1-1-1-1--1-1-1--1-1-1--1-1-1-1-1-1-1-1-1-------------|
G:-2-2-2-0-0--2-2-2--2-2-2--0-0-0-0-0-0-0-0-0--0--0-0-0-0-|
D:-2-2-2-2-2--3-3-3--1-1-1--2-2-2-2-2-2-2-2-2--0--0-0-0-0-|
A:-0-0-0-2-2--3-3-3--3-3-3--3-3-3-3-3-3-3-3-3--2--2-2-2-2-|
E:-------0-0--1-1-1--1-1-1---------------------3--3-3-3-3-|

   this must be the place for...
e:------------1-1-1--1-1-1--------------------------------|
B:-1-1-1-1-1--1-1-1--1-1-1--1-1-1-1-1-1-1-1-1-------------|
G:-2-2-2-2-2--2-2-2--2-2-2--0-0-0-0-0-0-0-0-0--0--0-0-0-0-|
D:-2-2-2-2-2--3-3-3--1-1-1--2-2-2-2-2-2-2-2-2--0--0-0-0-0-|
A:-0-0-0-0-0--3-3-3--3-3-3--3-3-3-3-3-3-3-3-3--2--2-2-2-2-|
E:------------1-1-1--1-1-1---------------------3--3-3-3-3-|

   didnt i tell you you you...
e:-1-1-1-1-1-1-1-------------------------------|
B:-3-3-3-3-3-3-3--0-0-0-0-0-0-0-0-0-0--1-1-1-1-|
G:-2-2-2-2-2-2-2--1-1-1-1-1-1-1-1-1-1--2-2-2-2-|
D:-0-0-0-0-0-0-0--2-2-2-2-2-2-2-2-2-2--2-2-2-2-|
A:----------------2-2-2-2-2-2-2-2-2-2--0-0-0-0-|
E:----------------0-0-0-0-0-0-0-0-0-0----------|

e:-------1-1--1-1-1------------------------------------------|
B:-1-1---1-1--1-1-1--1-1-1-1-1-1-1-1-1-1-1--1-1-1-1----------|
G:-2-2---2-2--2-2-2--0-0-0-0-0-0-0-0-0-0-0--2-2-2-2--1-1-1-1-|
D:-2-2---3-3--1-1-1--2-0-2-0-2-0-2-2-2-2-2--2-2-2-2--2-2-2-2-|
A:-0-0---3-3--3-3-3--3-3-3-3-3-3-3-3-3-3-3--0-0-0-0--2-2-2-2-|
E:-------1-1--1-1-1----------------------------------0-0-0-0-|


e:-----------------1-1-1-1--3-3-3-3-3--4-4-4-4-4-4--6-6-6-6-6-6--7-7-7-7----------|
B:-1-1-1-1--0-0-0--1-1-1-1--4-4-4-4-4--4-4-4-4-4-4--7-7-7-7-7-7--7-7-7-7--6-6-6-6-|
G:-2-2-2-2--1-1-1--2-2-2-2--3-3-3-3-3--5-5-5-5-5-5--8-8-8-8-8-8--8-8-8-8--6-6-6-6-|
D:-2-2-2-2--2-2-2--1-1-1-1--5-5-5-5-5--4-4-4-4-4-4--8-8-8-8-8-8--9-9-9-9--6-6-6-6-|
A:-0-0-0-0--2-2-2--3-3-3-3--3-3-3-3-3--6-6-6-6-6-6--6-6-6-6-6-6--9-9-9-9--4-4-4-4-|
E:----------0-0-0--1-1-1-1-------------4-4-4-4-4-4---------------7-7-7-7----------|

e:-2-2-2-2-2-----------------------|
B:-2-2-2-2-2--7--7-7--0--0-0-0-0-0-|
G:-2-2-2-2-2--7--7-7--1--1-1-1-1-1-|
D:-4-4-4-4-4--7--7-7--2--2-2-2-2-2-|
A:-4-4-4-4-4--5--5-5--2--2-2-2-2-2-|
E:-2-2-2-2-2----------0--0-0-0-0-0-|

e:-----------------1-1-1-1--3-3-3-3-3--4-4-4-4-4-4--6-6-6-6-6-6-------|
B:-1-1-1-1--0-0-0--1-1-1-1--4-4-4-4-4--4-4-4-4-4-4--7-7-7-7-7-7--6-6--|
G:-2-2-2-2--1-1-1--2-2-2-2--3-3-3-3-3--5-5-5-5-5-5--8-8-8-8-8-8--6-6--|
D:-2-2-2-2--2-2-2--1-1-1-1--5-5-5-5-5--4-4-4-4-4-4--8-8-8-8-8-8--6-6--|
A:-0-0-0-0--2-2-2--3-3-3-3--3-3-3-3-3--6-6-6-6-6-6--6-6-6-6-6-6--4-4--|
E:----------0-0-0--1-1-1-1-------------4-4-4-4-4-4--------------------|

e:-6-6-6-6-6-6--7-7-7-7----------|
B:-7-7-7-7-7-7--7-7-7-7--6-6-6-6-|
G:-8-8-8-8-8-8--8-8-8-8--6-6-6-6-|
D:-8-8-8-8-8-8--9-9-9-9--6-6-6-6-|
A:-6-6-6-6-6-6--9-9-9-9--4-4-4-4-|
E:--------------7-7-7-7----------|

e:-2-2-2-2-2-----------------------|
B:-2-2-2-2-2--7--7-7--0--0-0-0-0-0-|
G:-2-2-2-2-2--7--7-7--1--1-1-1-1-1-|
D:-4-4-4-4-4--7--7-7--2--2-2-2-2-2-|
A:-4-4-4-4-4--5--5-5--2--2-2-2-2-2-|
E:-2-2-2-2-2----------0--0-0-0-0-0-|


e:----------------1-1-1-1-1-1-1-----------------1-1-1-1-1-1-1-|
B:-1-1-1-1-1-1-1--1-1-1-1-1-1-1--1-1-1-1-1-1-1--1-1-1-1-1-1-1-|
G:-2-2-2-2-2-2-2--2-2-2-2-2-2-2--2-2-2-2-2-2-2--2-2-2-2-2-2-2-|
D:-2-2-2-2-2-2-2--3-3-3-3-3-3-3--2-2-2-2-2-2-2--3-3-3-3-3-3-3-|
A:-0-0-0-0-0-0-0--3-3-3-3-3-3-3--0-0-0-0-0-0-0--3-3-3-3-3-3-3-|
E:----------------1-1-1-1-1-1-1-----------------1-1-1-1-1-1-1-|

e:------------1-1-1--1-1-1--------------------------------|
B:-1-1-1-1-1--1-1-1--1-1-1--1-1-1-1-1-1-1-1-1-------------|
G:-2-2-2-2-2--2-2-2--2-2-2--0-0-0-0-0-0-0-0-0--0--0-0-0-0-|
D:-2-2-2-2-2--3-3-3--1-1-1--2-2-2-2-2-2-2-2-2--0--0-0-0-0-|
A:-0-0-0-0-0--3-3-3--3-3-3--3-3-3-3-3-3-3-3-3--2--2-2-2-2-|
E:------------1-1-1--1-1-1---------------------3--3-3-3-3-|

   this must be the place for...
e:------------1-1-1--1-1-1--------------------------------|
B:-1-1-1-1-1--1-1-1--1-1-1--1-1-1-1-1-1-1-1-1-------------|
G:-2-2-2-2-2--2-2-2--2-2-2--0-0-0-0-0-0-0-0-0--0--0-0-0-0-|
D:-2-2-2-2-2--3-3-3--1-1-1--2-2-2-2-2-2-2-2-2--0--0-0-0-0-|
A:-0-0-0-0-0--3-3-3--3-3-3--3-3-3-3-3-3-3-3-3--2--2-2-2-2-|
E:------------1-1-1--1-1-1---------------------3--3-3-3-3-|

   didnt i tell you you you...
e:-1-1-1-1-1-1-1-------------------------------|
B:-3-3-3-3-3-3-3--0-0-0-0-0-0-0-0-0-0--1-1-1-1-|
G:-2-2-2-2-2-2-2--1-1-1-1-1-1-1-1-1-1--2-2-2-2-|
D:-0-0-0-0-0-0-0--2-0-2-0-2-0-2-0-2-2--2-2-2-2-|
A:----------------2-0-2-0-2-0-2-0-2-2--0-0-0-0-|
E:----------------0-0-0-0-0-0-0-0-0-0----------|

e:-------1-1--1-1-1------------------------------------------|
B:-1-1---1-1--1-1-1--0-0-0-0-0-0-0-0-0-0-0--1-1-1-1----------|
G:-2-2---2-2--2-2-2--1-1-1-1-1-1-1-1-1-1-1--2-2-2-2--1-1-1-1-|
D:-2-2---3-3--1-1-1--2-0-2-0-2-0-2-2-2-2-2--2-2-2-2--2-2-2-2-|
A:-0-0---3-3--3-3-3--2-0-2-0-2-0-2-2-2-2-2--0-0-0-0--2-2-2-2-|
E:-------1-1--1-1-1--0-0-0-0-0-0-0-0-0-0-0-----------0-0-0-0-|

e:-----------------1-1-1-1--3-3-3-3-3--4-4-4-4-4-4--6-6-6-6-6-6--7-7-7-7----------|
B:-1-1-1-1--0-0-0--1-1-1-1--4-4-4-4-4--4-4-4-4-4-4--7-7-7-7-7-7--7-7-7-7--6-6-6-6-|
G:-2-2-2-2--1-1-1--2-2-2-2--3-3-3-3-3--5-5-5-5-5-5--8-8-8-8-8-8--8-8-8-8--6-6-6-6-|
D:-2-2-2-2--2-2-2--1-1-1-1--5-5-5-5-5--4-4-4-4-4-4--8-8-8-8-8-8--9-9-9-9--6-6-6-6-|
A:-0-0-0-0--2-2-2--3-3-3-3--3-3-3-3-3--6-6-6-6-6-6--6-6-6-6-6-6--9-9-9-9--4-4-4-4-|
E:----------0-0-0--1-1-1-1-------------4-4-4-4-4-4---------------7-7-7-7----------|

e:-2-2-2-2-2-----------------------|
B:-2-2-2-2-2--7--7-7--0--0-0-0-0-0-|
G:-2-2-2-2-2--7--7-7--1--1-1-1-1-1-|
D:-4-4-4-4-4--7--7-7--2--2-2-2-2-2-|
A:-4-4-4-4-4--5--5-5--2--2-2-2-2-2-|
E:-2-2-2-2-2----------0--0-0-0-0-0-|

e:-----------------1-1-1-1--3-3-3-3-3--4-4-4-4-4-4--6-6-6-6-6-6--7-7-7-7----------|
B:-1-1-1-1--0-0-0--1-1-1-1--4-4-4-4-4--4-4-4-4-4-4--7-7-7-7-7-7--7-7-7-7--6-6-6-6-|
G:-2-2-2-2--1-1-1--2-2-2-2--3-3-3-3-3--5-5-5-5-5-5--8-8-8-8-8-8--8-8-8-8--6-6-6-6-|
D:-2-2-2-2--2-2-2--1-1-1-1--5-5-5-5-5--4-4-4-4-4-4--8-8-8-8-8-8--9-9-9-9--6-6-6-6-|
A:-0-0-0-0--2-2-2--3-3-3-3--3-3-3-3-3--6-6-6-6-6-6--6-6-6-6-6-6--9-9-9-9--4-4-4-4-|
E:----------0-0-0--1-1-1-1-------------4-4-4-4-4-4---------------7-7-7-7----------|

e:-2-2-2-2-2-----------------------|
B:-2-2-2-2-2--7--7-7--0--0-0-0-0-0-|
G:-2-2-2-2-2--7--7-7--1--1-1-1-1-1-|
D:-4-4-4-4-4--7--7-7--2--2-2-2-2-2-|
A:-4-4-4-4-4--5--5-5--2--2-2-2-2-2-|
E:-2-2-2-2-2----------0--0-0-0-0-0-|

e:-0--------------------------------------------|
B:-1--------------------------------------------|
G:-2--------------------------------------------|
D:-2--------------------------------------------|
A:-0--------------------------------------------|
E:----------------------------------------------|


hillo son mex

02/12/09
Suggest correction
Give kudos to tab author, rate the tab!
1 2 3 4 5
comments
print report bad tab
guest
You may want to rate the tab now too:
select rating
Wanna post a correction for this tab? Suggest correction