Oops, an error
Loading. Please wait.

Walter Day - You And Mes A Love Id Like To See Tab

58 views 1 this week
no commentswrite comment
1 2 3 4 5
please rate
add to favorites
launch autoscroll
font size
0
reset
how to read this tab
guitar tuner
Autoscroll
slow
fast
+/-
esc
set tempo
stop
Help us to improve Ultimate-Guitar.com Take our survey!
×
Contributor
you and me's a love i'd like to see 
*vbs.tv twin galaxies and the golden domes part 3 of 3*


walter day


TRANSCRIBED BY RUDY GUZMAN


guzman_84@hotmail.com




                                               
e:-------------------------------------|
B:-----2-2------2-2------3-3-----------|
G:-----2-2------2-2------4-4-------1-1-|
D:---2-2-2------4-4----4-4-4-------2-2-|
A:-0---0-0----4-4-4--2---2-2----2--2-2-|
E:----------2---2-2-----------0----0-0-|

e:------------------------------------|
B:-----2-2------2-2------3-3------6-6-|
G:-----2-2------2-2------4-4------6-6-|
D:---2-2-2------4-4----4-4-4----6-6-6-|
A:-0---0-0----4-4-4--2---2-2--4---4-4-|
E:----------2---2-2-------------------|

e:----------------------------------------0---------------------|
B:-----------------3-3-3-3-3----3-3-3-3-3-3-0-3-3-3-3-0-0-0-0-0-|
G:-----------------2-2-2-2-2----4-4-4-4-4-4-0-2-2-2-2-0-1-1-1-1-|
D:---4-4-4-4-4--2--0-0-0-0-0-4--4-4-4-4-4-4-0-0-0-0-0-0-2-2-2-2-|
A:-0-4-4-4-4-4--0---------------2-2-2-2-2-0-------------2-2-2-2-|
E:---2-2-2-2-2------------------------------------------0-0-0-0-|

e:-------------------------------------|
B:-----2-2------2-2------3-3-----------|
G:-----2-2------2-2------4-4-------1-1-|
D:---2-2-2------4-4----4-4-4-------2-2-|
A:-0---0-0----4-4-4--2---2-2----2--2-2-|
E:----------2---2-2-----------0----0-0-|

e:------------------------------------|
B:-----2-2------2-2------3-3------6-6-|
G:-----2-2------2-2------4-4------6-6-|
D:---2-2-2------4-4----4-4-4----6-6-6-|
A:-0---0-0----4-4-4--2---2-2--4---4-4-|
E:----------2---2-2-------------------|

e:----------------------------------------0---------------------|
B:-----------------3-3-3-3-3----3-3-3-3-3-3-0-3-3-3-3-0-0-0-0-0-|
G:-----------------2-2-2-2-2----4-4-4-4-4-4-0-2-2-2-2-0-1-1-1-1-|
D:---4-4-4-4-4--2--0-0-0-0-0-4--4-4-4-4-4-4-0-0-0-0-0-0-2-2-2-2-|
A:-0-4-4-4-4-4--0---------------2-2-2-2-2-0-------------2-2-2-2-|
E:---2-2-2-2-2------------------------------------------0-0-0-0-|

e:---------------------------2-2-2-2-2--------------------------------------2-2-2-2-2-|
B:-5-5-5-5-5--4--2-2-2-2-2---3-3-3-3-3----3-3-3-3-3-------------2-2-2-2-2---3-3-3-3-3-|
G:-6-6-6-6-6--4--2-2-2-2-2---2-2-2-2-2----4-4-4-4-4--6-6-6-6----2-2-2-2-2---2-2-2-2-2-|
D:-6-6-6-6-6--6--4-4-4-4-4-2-0-0-0-0-0-4--4-4-4-4-4--6-6-6-6----4-4-4-4-4-2-0-0-0-0-0-|
A:-4-4-4-4-4--6--4-4-4-4-4-0--------------2-2-2-2-2--4-4-4-4-0--4-4-4-4-4-0-----------|
E:------------4--2-2-2-2-2--------------------------------------2-2-2-2-2-------------|

e:-2-------------0---------------------------------------------------|
B:-3---3-3-3-3-3-3-0-3-3-3-3-0-0-0--2-2-2-2--3-3-------2-2--2-2--3-3-|
G:-2---4-4-4-4-4-4-0-2-2-2-2-0-1-1--2-2-2-2--4-4--1-1--2-2--2-2--4-4-|
D:-0-4-4-4-4-4-4-4-0-0-0-0-0-0-2-2--2-2-4-4--4-4--2-2--2-2--4-4--4-4-|
A:-----2-2-2-2-2-0-------------2-2--0-0-4-4--2-2--2-2--0-0--4-4--2-2-|
E:-----------------------------0-0------2-2-------0-0-------2-2------|



hillo son mex

11/03/10
comments
We did not receive enough feedback on this tab! Please rate:
print report bad tab
1 2 3 4 5
I want to post or [tab]
guest
You may want to rate the tab now too:
select rating
Please do not post tabs as comments. Select "correction" instead!