Oops, an error
Loading. Please wait.

Walter Gross - Tenderly Tab

326 views 3 this week
no commentswrite comment
1 2 3 4 5
please rate
add to favorites
launch autoscroll
font size
0
reset
how to read this tab
guitar tuner
Autoscroll
slow
fast
+/-
esc
set tempo
stop
Help us to improve Ultimate-Guitar.com Take our survey!
×
Author
Difficulty
novice
                                  Walter Gross - Tenderly

                                 Ebmaj7                      Ab7(#11)            
     H        E   E   E   E      H        E   E   E   E      H.           E  E   
E||----------------------11--|--10--------L----------11--|--10------------6-----|
B||--------------11--13------|--11-----------11--13------|--11---------------7--|
G||--------------------------|--12-----------------------|--11------------------|
D||--------------------------|--13-----------------------|--10------------------|
A||--------------------------|---------------------------|----------------------|
E||--------------------------|---------------------------|----------------------|

  Eb-9                Ab13                    F-9                    
  W                   H        E  E  E  E     H        E  E   E  E   
-------------------|--------------------4--|------------------------|
--6----------------|--6-----------4--6-----|--8--------L---------9--|
--6----------------|--5--------------------|--8-----------8--10-----|
--4----------------|--4--------------------|--6---------------------|
--6----------------|-----------------------|--8---------------------|
-------------------|--4--------------------|------------------------|

   Db7(#11)                 Ebmaj7       G-7     F-7       Ebmaj7              
   H        E   E  E  E     Q      Q     E   E   E   E     H        Q    Q     
-------------------------|------------------------------|---------------------|
---8--------L------------|---------8----13--11---9--11--|--8------------------|
--10-----------10--8-----|---------7----10--10---8---8--|--7------------------|
---9------------------9--|--8------8----12--12--10--10--|--8-------------8----|
-------------------------|--6------6----10--10---8---8--|--6------------------|
---9---------------------|------------------------------|---------------------|

  F-7no5                Bb13                 F-7no5                 D-7no5       G7    
  H.            Q       H.           Q       H        Q     Q       H.           Q     
---------------------|--------------------|----------------------|--------------------|
---------------11----|--8-----------------|----------------11----|--8------------6----|
----------------8----|--7-----------------|-----------8-----8----|--5------------4----|
--9-------------9----|--6------------8----|--9--------9-----9----|--6------------5----|
--8-------------8----|--------------------|--8--------8-----8----|--5-----------------|
---------------------|--6-----------------|----------------------|--------------------|

  C-7                      F13                   F-11              
  H         Q     Q        H.           Q        W                 
-----------------13----|--10-----------------|--------------------|
--4--------------------|--10------------6----|--11----------------|
--3--------12----------|---8-----------------|---8----------------|
-----------------------|---------------------|--10----------------|
--3--------------------|---8-----------------|---8----------------|
-----------------------|---------------------|--------------------|

  Bb13                        Ebmaj7                      Ab7(#11)            
  H        E   E   E   E      H        E   E   E   E      H.           E  E   
--6-------------------11--|--10--------L----------11--|--10------------6-----|
--8-----------11--13------|--11-----------11--13------|--11---------------7--|
--7-----------------------|--12-----------------------|--11------------------|
--6-----------------------|--13-----------------------|--10------------------|
--------------------------|---------------------------|----------------------|
--------------------------|---------------------------|----------------------|

  Eb-9                Ab13                    F-9                    
  W                   H        E  E  E  E     H        E  E   E  E   
-------------------|--------------------4--|------------------------|
--6----------------|--6-----------4--6-----|--8--------L---------9--|
--6----------------|--5--------------------|--8-----------8--10-----|
--4----------------|--4--------------------|--6---------------------|
--6----------------|-----------------------|--8---------------------|
-------------------|--4--------------------|------------------------|

   Db7(#11)                 Ebmaj7       G-7     F-7       Ebmaj7              
   H        E   E  E  E     Q      Q     E   E   E   E     H        Q    Q     
-------------------------|------------------------------|---------------------|
---8--------L------------|---------8----13--11---9--11--|--8------------------|
--10-----------10--8-----|---------7----10--10---8---8--|--7------------------|
---9------------------9--|--8------8----12--12--10--10--|--8-------------8----|
-------------------------|--6------6----10--10---8---8--|--6------------------|
---9---------------------|------------------------------|---------------------|

  F-7no5                 Bb13                 C-7                   
  H        Q     Q       H.           Q       H         Q     Q     
----------------------|--------------------|-----------------13----|
----------------11----|--8------------6----|--4--------------------|
-----------8-----8----|--7-----------------|--3--------12----------|
--9--------9-----9----|--6-----------------|-----------------------|
--8--------8-----8----|--------------------|--3--------------------|
----------------------|--6-----------------|-----------------------|

   A-7no5       Ebdim7          G-7      Bbdim7    C7#5        F-9      Bb13    Bb7     
   H        E   E     E   E     H        E      E  E     E     H        E    E  E   E   
--10--------L--11-----8--10--|--6--------6------8-----------|--------------------------|
---8--------L--10-----7------|--6--------5---------9----11--|--8--------8----6--9---3--|
---8--------L--11-----8------|--7--------6---------9--------|--8--------7-------7------|
---7--------L--10-----7------|--5--------5---------8--------|--6--------6-------8------|
-----------------------------|------------------------------|--8-----------------------|
-----------------------------|---------------------8--------|-----------6--------------|

  Ebmaj7              (F-7     Bb7)       
  W                   H        H          
-------------------|--------------------||
--4----------------|--------------------||
--5----------------|--------------------||
--5----------------|--------------------||
--6----------------|--------------------||
-------------------|--------------------||




Duration Legend
---------------
W - whole
H - half
Q - quarter
E - 8th
S - 16th
T - 32nd
X - 64th
. - note dotted
|-n-|  - n-tuplets


Tablature Legend
----------------
L - tied note
x - dead note
g - grace note
(n) - ghost note
> - accentuded note
NH - natural harmonic
AH - artificial harmonic
TH - tapped harmonic
SH - semi harmonic
PH - pitch harmonic
h - hammer on
p - pull off
b - bend
br - bendRelease
pb - preBend
pbr - preBendRelease
brb - bendReleaseBend
\n/ - tremolo bar dip
\n - tremolo bar dive
-/n - tremolo bar Release up
/n\ - tremolo bar inverted dip
/n - tremolo bar return
-\n - tremolo bar Release down
S - shift slide
s - legato slide
/ -  slide into from below or out of upwards
\ -  slide into from above or out of downwards
~ - vibrato
W - wide vibrato
tr - trill
TP - tremolo picking
T - tapping
S - slap
P - pop
< - fade in
^ - brush up
v - brush down
Suggest correction
What's this?
You can suggest a correction to this tab. Community and Mods will review your correction and vote to approve or reject it.
comments
We did not receive enough feedback on this tab! Please rate:
print report bad tab
1 2 3 4 5
guest
You may want to rate the tab now too:
select rating
Please do not post tabs as comments. Select "correction" instead!