Oops, an error
Loading. Please wait.

Warren Nemwna - Etude No 2 Tab

282 views 1 this week
1 commentread comment
1 2 3 4 5
please rate
add to favorites
launch autoscroll
font size
0
reset
how to read this tab
guitar tuner
Autoscroll
slow
fast
+/-
esc
set tempo
stop
Help us to improve Ultimate-Guitar.com Take our survey!
×
Difficulty
intermediate
Warren Newman
Etude no2
The second study for guitar
simple tune in F#m
Standard Tuning


(/) Slide Up  (\) Slide Down  (h) Hammer On  (p) Pull Off  (b) Bend (r) Release (v) Vibrato

E|-----------2-----------------------2-------2-------------4-----7-5-4-|
B|---------2---2-3-2-0-2-----------3---3-5-5---3---------5---5-7-------|
G|-------2---------------2-------4---------------------6---------------|
D|-----4-----------------------4---------------------6-----------------|
A|---4-----------------------2---------------------4-------------------|
E|-2-----------------------2---------------------4---------------------|

E|-----------2-------------|----2-------------2-4---------|
B|---------2---2-3-2-0-2---|----2-2/3-------3-------------|
G|-------2---------------2-|----2-----2-4-4-----4---------|
D|-----4-------------------|------------------------------|
A|---4---------------------|------------2---------2-0-----|
E|-2-----------------------|--2-----------------------4-2-|

E|----------------7-7----7-9-9-7--------------|
B|-------7-7/9-10-7---10---9-----10-9-7-7-3-2-|
G|-2/4-6-6--------7--------------7--6-6-6-2-2-|
D|-------7----------------------------7-7-3-1-|
A|--------------------------------------------|
E|--------------------------------------------|

E|-------2-------------2-4-2---5---4---2------------|
B|-------2-2/3-------3-----3---5---4---2------------|
G|-------2-----2-4-4-----4-4---5---4---2------------|
D|-------------------------4---7---6---4------------|
A|---------------2---------2---7---6---4------------|
E|-----2-------------------2---5---4---2------------|

E|----------------7-7----7-9-9-7----------|
B|-------7-7/9-10-7---10---9-----10-9-7---|
G|-2/4-6-6--------7--------------7--6-6---|
D|-------7----------------------------7---|
A|----------------------------------------|
E|----------------------------------------|

Played faster than rest of song
E|---10-10-9-7-7----------9-10-9-7-7-------------------------------5-2-|
B|-7-------9-7---7-7-9-10-9-9--9-7---7---------------------------7-----|
G|-------------7-------------------7---6-7-6-7-7-6-------------6-------|
D|---9--9--------7-------------------7-7-7-7-----6-7-6-------7---------|
A|-9---------------------------------------------------9-9-9-----------|
E|-------------------------------------------7-----------9-------------|

E|-----2-----------------------2---------------2---5-3-2-----|
B|-----2-2-----2-3-2-0-2-------3-3-----3-5-5-5---3-3-3-3-3-2-|
G|---2-----2-------------2---2-----2-------------------------|
D|-------------------------0---------0-----------------------|
A|-----------------------------------------------------------|
E|-2---------2-----------------------------------------------|

E|-----2-----------------------2-------------2---5-3-2-------------|
B|-----2-2-----2-3-2-0-2-------3-3-----3-5-5---3-3-3-3-3-2-0-0-3-3-|
G|---2-----2-------------2---2-----2---------------------------2-2-|
D|-------------------------0---------0---------------------2-2-----|
A|-----------------------------------------------------------------|
E|-2---------2-----------------------------------------------------|

E|----2-------------2-4---------|
B|----2-2/3-------3-------------|
G|----2-----2-4-4-----4---------|
D|------------------------------|
A|------------2---------2-0-----|
E|--2-----------------------4---|

Strummed as chords
E|-2-2-2-2-2-2-2-2--2-2-2-2-2-2-2-2--4-4-4-4-4-4-7-7-2--2-4-2||
B|-2-2-2-2-3-3-3-3--3-3-3-3-5-5-5-5--5-5-5-5-7-7-5-5-2--2-5-2||
G|-2-2-2-2-2-2-2-2--4-4-4-4-2-2-2-2--6-6-6-6-4-4-4-4-2--2-6-2||
D|-4-4-4-4-4-4-4-4--4-4-4-4-4-4-4-4--6-6-6-6-6-6-6-6-4--4-6-2||
A|-4-4-4-4-4-4-4-4--2-2-2-2-2-2-2-2--4-4-4-4-4-4-4-4-4--4---4||
E|-2-2-2-2-2-2-2-2--2-2-2-2-2-2-2-2--4-4-4-4-4-4-4-4-2--2---2||
Suggest correction
Give kudos to tab author, rate the tab!
1 2 3 4 5
comments
print report bad tab
1 comment total.
0 reply
wolby2001 10 wrote on March 9 2009, 12:42 pm

its not by warren nemwna but it is by WARREN NEWMAN

guest
You may want to rate the tab now too:
select rating
Wanna post a correction for this tab? Suggest correction