Oops, an error
Loading. Please wait.

Warrington Station - Slender Man Tab

2,683 views 3 this week
no commentswrite comment
1 2 3 4 5
please rate
add to favorites
launch autoscroll
font size
0
reset
how to read this tab
guitar tuner
Autoscroll
slow
fast
+/-
esc
set tempo
stop
Help us to improve Ultimate-Guitar.com Take our survey!
×
Contributor
Difficulty
Tuning
novice
A E A D F# B
Slender Man
Drop-A Tuning

intro
e|-------------------------------------------------------------|
b|-------------------------------------------------------------|
g|-------------------------------------------------------------|
d|--2-----2-----2-----2------0-----0-----0-----0---------------|
a|--3-----3-----3-----3------3-----3-----3-----3---------------|
e|--1-00--1-00--1-00--1-000--0-00--0-00--0-00--0-000-----------|
a|----00----00----00----000----00----00----00----000-----------|x2


e|---------------------------------------------------------------------|
b|---------------------------------------------------------------------|
g|---------------------------------------------------------------------|
d|----2----2----2--------------------0-----0----0----------------------|
a|----3----3----3--------------------3-----3----3----------------------|
e|-0--1-00-1-00-1-----------------0--0-00--0-00-0----------------------|
a|-0----00---00---000-00-0-0000---0----00----00---000-00-0-0000---|x2



e|---------------------------------------------------------|
b|---------------------------------------------------------|
g|---------------------------------------------------------|
d|---------------------------------------------------------|
a|-----77777777777------101010101010101212128888-----------|
e|--0--88888888888--00--8-8-8-8-8-8-8-8-8-8-8888-----------|
a|--0--88888888888--00--8-8-8-8-8-8-8-8-8-8-8888-----------|x4

POTV rip
e|-----------------------------------------------------------------|
b|-----------------------------------------------------------------|
g|-----------------------------------------------------------------|
d|-2-----2-----2---2-----2-----2---2---2---2--2--2--2--------------|
a|-3-----3-----3---3-----3-----3----3---3---3--3--2--3-------------|
e|-1-----1-----1---1-----1-----1------1---1------1---1-------------|
a|---00----00---0---00----00-----0---------------------------------| x4

*transition

chorus
e|-------------------------------------------------------------------|
b|-------------------------------------------------------------------|
g|-------------------------------------------------------------------|
d|-------------------------------------------------------------------|
a|-77777777----------------------------12----------------12----------|
e|-88888888-10101010101010----0008-00----8----0008-00------8---------|
a|-88888888-8-8-8-8-8-8-8-8---0008-00---------0008-00----------------|x4

*transition

triplets
e|------------------------------------------------------------------------|
b|------------------------------------------------------------------------|
g|------------------------------------------------------------------------|
d|---------------------------0-------------------------------2------------|
a|--------------------------3-3--------------------------------3--3-------|
e|-000-000-000-000-000-000-0--------000-000-000-000-000-000------3--------|
a|-000-000-000-000-000-000----------000-000-000-000-000-000---------------|x2


canaan's part
e|-------------------------------------------------------------|
b|-------------------------------------------------------------|
g|-------------------------------------------------------------|
d|-----------------------0------------------------2------------|
a|----------------------3-3-------------------------3--3-------|
e|-000-000-0-000-000-----------000-000-0-000-000-----3---------|
a|-000-000-0-000-000-1^--------000-000-0-000-000-1^------------|x4



*transition

3/4 part
e|------------------------------------------------|
b|------------------------------------------------|
g|------------------------------------------------|
d|------------------------------------------------|
a|--7---7---7---7----10---10---12--10-------------|
e|----8---8---8---8----8----8----8----8-----------|
a|-----8---8---8---8----8----8----8----8----------|

e|------------------------------------------------|
b|------------------------------------------------|
g|------------------------------------------------|
d|------------------------------------------------|
a|--7---7---7---7---10--10---8----8---------------|
e|----8---8---8---8----8----8----8----8-----------|
a|-----8---8---8---8----8----8----8----8----------| both parts x2 i think

kodiak rip-off
e|---------------------------------------------------------|
b|---------------------------------------------------------|
g|---------------------------------------------------------|
d|---------------------------------------------------------|
a|-----77777777777------101010101010101212128888-----------|
e|--0--88888888888--00--8-8-8-8-8-8-8-8-8-8-8888-----------|
a|--0--88888888888--00--8-8-8-8-8-8-8-8-8-8-8888-----------|x4

build up
e|----------------|
b|----------------|
g|----------------|
d|----------------|
a|--7~------------|
e|--8~------------|
a|--8~------------| x4

ending
e|----------------------------------------------------------------|
b|----------------------------------------------------------------|
g|----------------------------------------------------------------|
d|----------------------------------------------------------------|
a|-7777-7777--10101010--10101010--8888-888888---------------------|
e|-8888-8888---8-8-8-8---8-8-8-8--8888-888888---------------------|
a|-8888-8888---8-8-8-8---8-8-8-8--8888-888888---------------------|
(cont)
e|----------------------------------------------------------------|
b|----------------------------------------------------------------|
g|----------------------------------------------------------------|
d|----------------------------------------------------------------|
a|-7777-7777---10101010-10101010---12121212---121212121212--------|
e|-8888-8888---8-8-8-8--8-8-8-8-----8-8-8-8----8-8-8-8-8-8--------|
a|-8888-8888---8-8-8-8--8-8-8-8-----8-8-8-8----8-8-8-8-8-8--------|bothx2

strum end
e|-----------------------------------------|
b|-----------------------------------------|
g|-----------------------------------------|
d|-----------------15----------------------|
a|-15------14------12----------------------|
e|-12------10------12----------------------|
a|-12-x12--10-x12--12-x24------------------|
comments
We did not receive enough feedback on this tab! Please rate:
print report bad tab
1 2 3 4 5
I want to post or [tab]
guest
You may want to rate the tab now too:
select rating
Please do not post tabs as comments. Select "correction" instead!