Oops, an error
Loading. Please wait.

Wasteland - Raison Detre Tab

31 views 1 this week
no commentswrite comment
1 2 3 4 5
3 more votes to show rating
add to favorites
launch autoscroll
font size
0
reset
how to read this tab
guitar tuner
Autoscroll
slow
fast
+/-
esc
set tempo
stop
Help us to improve Ultimate-Guitar.com Take our survey!
×
Author
Tuning
D A D G B E
Tuning: Drop D
Legend:
[] = Tremo 
/\ = Slides 
() = Palm mute
{} = Taps
~ = "let it ring"
b = bend
h = hammeron
p = pulloff
x = muted open


e|------------------------------------------------------------------|
B|------------------------------------------------------------------|
G|------------------------------------------------------------------|
D|---------------------------------------------------------0h3---0h3|
A|-1-00-0-0-0-1-0-3-0-1/3-00-0-0-0-1-0-3-0-3\1-00-0-0-0-0h1---0h1---|
D|-1-00-0-0-0-1-0-3-0-1/3-00-0-0-0-1-0-3-0-3\1-00-0-0-0-------------|


e|-------------------------------------------------------------|
B|-------------666-6-666-666----------------666-6-666-666------|
G|-------------999-9-999-999----------------999-9-999-999------|
D|-1p0-3p0-5p0--------------1-1-1p0-3p0-5p0---------------3-3--|
A|-1p0-3p0-5p0--------------3-3-1p0-3p0-5p0---------------1-1--|
D|-1p0-3p0-5p0------------------1p0-3p0-5p0--------------------|

e|---------------------------------------------------------|
B|---------------------------------------------------------|
G|---------------------------------------------------------|
D|--------------------------------[333333]-----------------|
A|00-0h3-0h3-00-0h3-0h3-00-0h3-0h3--------[111111]---------|
D|00-0h3-0h3-00-0h3-0h3-00-0h3-0h3-------------------------|

e|---------------------------------------------------------|
B|---------------------------------------------------------|
G|---------------------------------------------------------|
D|--3-2---3-2---3-2---3-2-------5-----5-----5-----5--------|
A|------3-----3-----3-----3-0-3---0-3---0-3---0-3----------|
D|---------------------------------------------------------|

e|--5------------------------------------------------------|
B|----7----------------------------------------------------|
G|------6-4------------------------------------------------|
D|----------3-2-----[333][222]----000-----5b~-----------5b~|
A|--------------3b~-----------3b~-000-0-3-----[000][333]---|
D|--------------------------------000----------------------|

e|---------------------------------------------------------|
B|---------------------------------------------------------|
G|---------------------------------------------------------|
D|---0h3---0h3---0h3---0h3---0h5---0h5---0h5---0h5---------|
A|0h1---0h1---0h1---0h1---0h3---0h3---0h3---0h3------------|
D|---------------------------------------------------------|

e|-18-1515----------------------7-------7------------------|
B|---------17-1414------------5---8~--5-------8~-----8~----|
G|-----------------0~---------------------7-5-----5~-------|
D|-----------------0~--------------------------------------|
A|-----------------0~---000x-------------------------------|
D|-----------------0~---000x-------------------------------|

e|--7777777788888888777777771010101010101010------------------------------|
B|------------------------------------------9-7----------------9-7---9-7--|
G|----------------------------------------------10-8----10-8--------------|
D|---------------------------------------------------10------8-----9-----7|
A|------------------------------------------------------------------------|
D|------------------------------------------------------------------------|

e|---------------------------------------------------------|
B|--666---666---666---666---666----666-6x------------------|
G|-----999---999---999---999---999-999-9x------------------|
D|-------------------------------------------------0~---x--|
A|-----------------------------------------000-000-0~---x--|
D|-----------------------------------------000-000-0~---x--|
Suggest correction
Give kudos to tab author, rate the tab!
1 2 3 4 5
comments
print report bad tab
guest
You may want to rate the tab now too:
select rating
Wanna post a correction for this tab? Suggest correction