Oops, an error
Loading. Please wait.

Wasteland - The Maven Tab

25 views 1 this week
no commentswrite comment
1 2 3 4 5
please rate
add to favorites
launch autoscroll
font size
0
reset
how to read this tab
guitar tuner
Autoscroll
slow
fast
+/-
esc
set tempo
stop
Help us to improve Ultimate-Guitar.com Take our survey!
×
Author
Tuning
D A D G B E
Tuning: Drop D
Legend:
[] = Tremo 
/\ = Slides 
() = Palm mute
{} = Taps
~ = "let it ring"


e|---------------------------------------------------------|
B|---------------------------------------------------------|
G|---------------------------------------------------------|
D|--------------------------------0x-----------------------|
A|------0~-----0-0x-------0-------0x-----------------------|
D|------0[000]-0-0x-------0[000]--0x-----------------------|

e|---------------------------------------------------------|
B|---------------------------------------------------------|
G|---------------------------------------------------------|
D|------------------3~3~-----------------------------------|
A|-0-0-0--00-0-0-0-5~5~--000-[(555555)]-00-0--8/7----------|
D|-0-0-0--00-0-0-0-------000-[(555555)]-00-0---------------|

e|---------------------------------------------------------|
B|---------------------------------------------------------|
G|---------------------------------------------------------|
D|-----------0h2---0h2----0----0----0h2---0h2--------------|
A|-0-0~---0h3---0h3----00-0-00-0-0h3---0h3-----------------|
D|-0-0~----------------00-0-00-0---------------------------|

e|-------------------4-------------------------------------|
B|--------------------3------------------------------------|
G|---------------------2-----------------------------------|
D|----------00---------------------------------------------|
A|----00----00----00------0-0-0------------0h2-0h2/3-------|
D|-00-00-00-00-00-00------0-0-0--[000000]--0h2-0h2/3-------|

e|---------------------------------------------------------|
B|---------------------------------------------------------|
G|---------------------------------------------------------|
D|---------------------5--5--5--5--------------------------|
A|-88-8-8-8-88-8-8-8-333333333333--------------------------|
D|-88-8-8-8-88-8-8-8-333333333333--------------------------|

e|---------------------------------------------------------|
B|---------------------------------------------------------|
G|---------------------------------------------------------|
D|-----------------------55-55-55--------------------------|
A|-55-5-5-5-55-5-5-5-----88-88-88--------------------------|
D|-55-5-5-5-55-5-5-5--000--0--0--17\1p0--------------------|

e|---------------------------------------------------------|
B|---------------------------------------------------------|
G|---------------------------------------------------------|
D|--0~-----------------------------------------------------|
A|--0~-----------------------------------------------------|
D|--0~-----------------------------------------------------|

e|---------------------------------------------------------|
B|---------------------------------------------------------|
G|---------------------------------------------------------|
D|--7---0-----0---7----------------------------------------|
A|--8---0-0---0-0-8-0--------------------------------------|
D|--8-0-0-0-0-0-0-8-0-00000-00000-00000--------------------|

e|---------------------------------------------------------|
B|---------------------------------------------------------|
G|---------------------------------------------------------|
D|--8~----------0~-----------------------------------------|
A|--8~----------0~-----------------------------------------|
D|--8~----------0~-----------------------------------------|

e|---------------------------------------------------------|
B|---------------------------------------------------------|
G|---------------------------------------------------------|
D|------7------------3--0~---------------------------------|
A|----5---8~-------1---------------------------------------|
D|--8------------0-----------------------------------------|
Suggest correction
Give kudos to tab author, rate the tab!
1 2 3 4 5
comments
print report bad tab
guest
You may want to rate the tab now too:
select rating
Please do not post tabs as comments. Select "correction" instead!