Oops, an error
Loading. Please wait.

Watch As The World Burns - The Night When The Light You Will See Tab

88 views 1 this week
no commentswrite comment
1 2 3 4 5
please rate
add to favorites
launch autoscroll
font size
0
reset
how to read this tab
guitar tuner
Tab Pro tools
  • play this tab
  • loop segment
  • change instrument
  • show fretboard
  • metronome
Autoscroll
slow
fast
+/-
esc
set tempo
stop
Contributor
Difficulty
Tuning
intermediate
C G C F A D
-------------------------------------------------------------------------------
                             The Night When The Light You Will See - Watch As The World Burns
-------------------------------------------------------------------------------
Tabbed by: Official guitarist for WATWB: Jon Warren
Email: USMC37@gmail.com

Tuning: Drop C
Intro: Guitar 1 x8

------------------------------------------------------------------------------|
------------------------------------------------------------------------------|
------------------------------------------------------------------------------|
------------------------------------------------------------------------------|
------------10h12p10----------------10h12p10----------------h10h12p10---------|
000000-10h12--------h12-000000-10h12--------h12-000000-10h12---------h12-8h10-|
xxxxxx x  x             xxxxxx x  x             xxxxxx x  x              x x
-----------------------------------------------------------------------------|
-----------------------------------------------------------------------------|
-----------------------------------------------------------------------------|
-----------------------------------------------------------------------------|
8h10p8-------6h8p6-----------------------------------------------------------|
------h10-6h8-----h8---------------------------------------------------------|
          x x

Intro: Guitar 2 x8
------------------------------------------------------------------------------|
------------------------------------------------------------------------------|
------------------------------------------------------------------------------|
0-----------------------1-----------------------0-------------------------3-1-|
0-----------10h12p10----1-----------10h12p10----0-------------10h12p10----3-1-|
0------10h12--------h12-1------10h12--------h12-0--------10h12--------h12-3-1-|
       x  x                    x  x                      x  x

Verse: Guitar 1&2 x2
-----------------------------------------------------------------------------|
-----------------------------------------------------------------------------|
-----------------------------------------------------------------------------|
0-------1-----0-3-------3------------0-------1-----0-3-----------------------|
0-00-00-1-00-00-3-00-00-3-00-1p0h1p0-0-00-00-1-00-00-3-00-000-1--------------|
0-00-00-1-00-00-3-00-00-3-00-1p0h1p0-0-00-00-1-00-00-3-00-000--5435431-------|
  xx xx   xx x    xx xx   xx           xx xx   xx x    xx xxx

Pre-Chorus: Guitar 1&2 x2
-----------------------------------------------------------------------------|
-----------------------------------------------------------------------------|
-----------------------------------------------------------------------------|
-----------------------------------------------------------------------------|
-----------------------------------------------------------------------------|
000000000000111111444444333333333333-876765-876765---------------------------|
xxxxxxxxxxxxxxxxxxxxxxxxxxxxxxxxxxxx xxxxxx xxxxxx

Chorus: Guitar 1
------------------------------------------------------------------------------|
------------------------------------------------------------------------------|
------------------------------------------------------------------------------|
000000000000111111111111000000000000------------1--00000000000088888888888800-|
000000000000111111111111000000000000------------1--00000000000066666666666600-|
000000000000111111111111000000000000-000-876765-1--000000000000------------00-|
                                     xxx xxxxxx
-----------------------------------------------------------------------------|
-----------------------------------------------------------------------------|
-----------------------------------------------------------------------------|
0000000000------------88-----------------------------------------------------|
0000000000------------66-----------------------------------------------------|
0000000000-000-876765--------------------------------------------------------|
           xxx xxxxxx

Chorus: Guitar 2
------------------------------------------------------------------------------|
------------------------------------------------------------------------------|
------------------------------------------------------------------------------|
-----------------------------------------------------1------------------------|
------5-------------5---6+~-------5------------------1--------5-------------5-|
00-878-87876~-00-878-878----00-878-87876~-000-876765-1--00-878-87876~-00-878--|
                                          xxx xxxxxx
-----------------------------------------------------------------------------|
-----------------------------------------------------------------------------|
-----------------------------------------------------------------------------|
-----------------------------------------------------------------------------|
---6+~-------5------------------88-------------------------------------------|
878----00-878-87876~-000-876765-66-------------------------------------------|
                     xxx xxxxxx

Bridge: Guitar 1&2
-----------------------------------------------------------------------------|
-----------------------------------------------------------------------------|
-----------------------------------------------------------------------------|
----------------11-----------------88-----------------11---------------------|
000-000-000-000-11-000-000-000-000-66-000-000-000-000-11-000-000-000-000-/\--|
000-000-000-000-11-000-000-000-000----000-000-000-000-11-000-000-000-000-/\--|
xxx xxx xxx xxx    xxx xxx xxx xxx    xxx xxx xxx xxx    xxx xxx xxx xxx

Bridge 2: Guitar 1 x4
-----------------------------------------------------------------------------|
-----------------------------------------------------------------------------|
-----------------------------------------------------------------------------|
-----------------------------------------------------------------------------|
000---000---000---000--------------------------------------------------------|
000---000---000---000--------------------------------------------------------|

Bridge 2: Guitar 1 x4
------------------------------------------------------------------------------|
------------------------------------------------------------------------------|
------------------------------------------------------------------------------|
-----6-----7------------------------------------------------------------------|
---78----78----876---6h7p6----------------------------------------------------|
000---000---000---000-----h10-------------------------------------------------|
xxx   xxx   xxx   xxx

Bridge 2: Guitar 2 x8
-----------------------------------------------------------------------------|
-----------------------------------------------------------------------------|
-----6-----7-----------------------------------------------------------------|
---78----78----876---6h7p6---------------------------------------------------|
--------------------------h8-------------------------------------------------|
000---000---000---000--------------------------------------------------------|
xxx   xxx   xxx   xxx

Solo: Guitar 2
/11~-10~-h11~p10~------------------------------11(3)10(3)11(3)10(3)14(3)10----|(3)
-----------------11~10+~\-----------------------------------------------------|
-------------------------/11~-10~-h11p10~8~-7~--------------------------------|
------------------------------------------------------------------------------|
------------------------------------------------------------------------------|
------------------------------------------------------------------------------|

13(3)11(6)10(3)11(3)10(3)14(3)10(3)13p11p10h13p11p10-11(3)10(3)11(3)10(3)14(3
-----------------------------------------------------------------------------|
-----------------------------------------------------------------------------|
-----------------------------------------------------------------------------|
-----------------------------------------------------------------------------|
-----------------------------------------------------------------------------|

)10(3)13(3)11(6)10(3)11(3)14p11p10h13p11p10h14p11p10h13p11p10~---------------|
-----------------------------------------------------------------------------|
-----------------------------------------------------------------------------|
-----------------------------------------------------------------------------|
-----------------------------------------------------------------------------|
-----------------------------------------------------------------------------|

Mosh Intro: Guitar 1&2
-----------------------------------------------------------------------------|
-----------------------------------------------------------------------------|
-----------------------------------------------------------------------------|
0-1-3-4-3-1-4-3-1-4-3-1-0----------------------------------------------------|
0-1-3-4-3-1-4-3-1-4-3-1-0----------------------------------------------------|
0-1-3-4-3-1-4-3-1-4-3-1-0----------------------------------------------------|
x x x x x x x x x x x x

Mosh: Guitar 1&2 x2
-----------------------------------------------------------------------------|
-----------------------------------------------------------------------------|
-----------------------------------------------------------------------------|
---------------------854-----------------------------------------------------|
---854---854---854---------854---854-----------------------------------------|
854---854---854---854---854---854---854543431310-----------------------------|

Mosh 2: Guitar 1&2 (Part A x3, Part B x1) x2
-----------------------|-----------------------------------------------------|
-----------------------|-----------------------------------------------------|
-----------------------|-----------------------------------------------------|
0-1---------6-5-3-5-3-1|0-1---------6-5-3-8-7-5------------------------------|
0-100-0-0-0-6-5-3-5-3-1|0-100-0-0-0-6-5-3-6-5-3------------------------------|
0-100-0-0-0-6-5-3-5-3-1|0-100-0-0-0-6-5-3------------------------------------|
  xxx x x x               xxx x x x

Pre-Chorus Higher Octave: Guitar 1&2 x2
-----------------------------------------------------------------------------|
-----------------------------------------------------------------------------|
-----------------------------------------------------------------------------|
000000000000111111444444333333333333-876765-876765---------------------------|
-----------------------------------------------------------------------------|
-----------------------------------------------------------------------------|
                                     xxxxxx xxxxxx

*****************************************************************************
Intro           x8
Verse           x2
Pre-Chorus      x2
Chorus          x1
Intro           x2
Verse           x2
Pre-Chorus      x2
Chorus          x1
Bridge          x1
Bridge 2        x4(Guitar 1 pt. 1) x4 (Guitar 1 pt. 2)/ x8 (Guitar 2)
Solo/Pre-Chorus x1(Guitar 2)/x3(Guitar 1)
Mosh Intro      x1
Mosh            x2
Mosh 2          x2
Pre-Chorus      x2
Pre-Chorus HO   x2
Chorus          x1
Intro           x4
*****************************************************************************
| /   slide up
| \   slide down
| h   hammer-on
| p   pull-off
| ~   vibrato
| +   harmonic
| x   Mute note
| (#) Number of times played
*****************************************************************************
comments
We did not receive enough feedback on this tab! Please rate:
print report bad tab
1 2 3 4 5
I want to post or [tab]
guest
You may want to rate the tab now too:
select rating
Please do not post tabs as comments. Select "correction" instead!