Oops, an error
Loading. Please wait.

Waters Edge - Ruin Me Tab

131 views 3 this week
no commentswrite comment
1 2 3 4 5
please rate
add to favorites
launch autoscroll
font size
0
reset
how to read this tab
guitar tuner
Autoscroll
slow
fast
+/-
esc
set tempo
stop
Help us to improve Ultimate-Guitar.com Take our survey!
×
Author
Difficulty
Tuning
novice
D# G# C# F# A# D#
Ruin Me By the Worship team Water's Edge (Written By Miah Marion) in
Omaha, NE at Libery Christian Center on 60th and L

Myspace= www.myspace.com/watersedgeomaha

This song is a half step down and with the low E to Db for bar chords which reads like

Db Ab Db Gb Bb Eb

SONG STRUCTURE
This is a slower Worship song, and like most, It's very easy, so you can pretty much
or solo over it on the right scale up until the chorus. then there's some structure. ON THE
VERSION IT'S GOT MORE STABILITY TO IT, BUT I'M JUST TABBING IT OUT HOW I PLAY IT ON 
If you really want to play it perfect, the solo acoustic guitar is really easy to
out.

(Improv in an Am Blues Scale) for about a minute

CHORUS
IMPROV
CHORUSX2
IMPROV
CHORUSX2
GTR BREAK
SOFT CHORUS BUILD
CHORUSX2
END

CHORUS
Eb|------------------------------------------------X-X-----X-X-X-X-------|
Bb|------------------------------------------------X-X-----X-X-X-X-------|
Gb|--9--9--9--9--9--9--9--9--9--9--9--9--9--9--9---X-X--6--X-X-X-X--6----|
Db|--9--9--9--9--9--9--9--9--9--9--9--9--9--9--9---X-X--6--X-X-X-X--6----|
Ab|--7--7--7--7--7--7--7--7--6--6--6--6--6--6--6---X-X--4--X-X-X-X--4----|
Db|------------------------------------------------X-X-----X-X-X-X-------|

Eb|-------X-X------X-X-X-X-----------------|
Bb|-------X-X------X-X-X-X-----------------|
Gb|-6-----X-X---2--X-X-X-X---2----2--------|
Db|-6-----X-X---2--X-X-X-X---2----2--------|
Ab|-4-----X-X---0--X-X-X-X---0----0--------|
Db|-------X-X------X-X-X-X-----------------|
Suggest correction
Give kudos to tab author, rate the tab!
1 2 3 4 5
comments
print report bad tab
guest
You may want to rate the tab now too:
select rating
Wanna post a correction for this tab? Suggest correction