Oops, an error
Loading. Please wait.

Wax - No More Love Songs Tab

2,792 views 1 this week
no commentswrite comment
1 2 3 4 5
accurate
x 2
add to favorites
launch autoscroll
font size
0
reset
how to read this tab
guitar tuner
Tab Pro tools
  • play this tab
  • loop segment
  • change instrument
  • show fretboard
  • metronome
Autoscroll
slow
fast
+/-
esc
set tempo
stop
Difficulty
intermediate
"No More Love Songs" - By Wax

Tabbed by Arthur H-S

(#) bar those frets
x is a muted string

Intro
||--------x-------|6--7----7-------||2--3----3------|4--5--5--5-----||
||5------(5)------|--------x-------||--------x------|------x--x-----||
||--------7-------|-------(7)------||--------4------|------5--5-----||
||--------6-------|-------(7)------||--------4------|------6--6-----||
||-------(5)------|-------(7)------||--------3------|------7--5-----||
||--------7-------|--------9-------||--------0------|------0--0-----||


||--------x-------|6--7----7-------||2--3----3------|4--5--5--5-----||
||5------(5)------|--------x-------||--------x------|------x--x-----||
||--------7-------|-------(7)------||--------4------|------5--5-----||
||--------6-------|-------(7)------||--------4------|------6--6-----||
||-------(5)------|-------(7)------||--------3------|------7--5-----||
||--------7-------|--------9-------||--------0------|------0--0-----||


||--------x-------|6--7----7-------||2--3----3------|4--5--5--5-----||
||5------(5)------|--------x-------||--------x------|------x--x-----||
||--------7-------|-------(7)------||--------4------|------5--5-----||
||--------6-------|-------(7)------||--------4------|------6--6-----||
||-------(5)------|-------(7)------||--------3------|------7--5-----||
||--------7-------|--------9-------||--------0------|------0--0-----||


||--------x-------|6--7----7-------||2--3--3--5--5--|---------------||
||5------(5)------|--------x-------||---------x--x--|---------------||
||--------7-------|-------(7)------||---------5--5--|---------------||
||--------6-------|-------(7)------||---------6--6--|---------------||
||-------(5)------|-------(7)------||---------7--5--|---------------||
||--------7-------|--------9-------||---------0--0--|---------------||

Chorus
||--------x-------|6--7----7-------||2--3----3------|4--5--5--5-----||
||5------(5)------|--------x-------||--------x------|------x--x-----||
||--------7-------|-------(7)------||--------4------|------5--5-----||
||--------6-------|-------(7)------||--------4------|------6--6-----||
||-------(5)------|-------(7)------||--------3------|------7--5-----||
||--------7-------|--------9-------||--------0------|------0--0-----||
         I seen many of  days with my back against the wall

||--------x-------|6--7----7-------||2--3----3------|4--5--5--5-----||
||5------(5)------|--------x-------||--------x------|------x--x-----||
||--------7-------|-------(7)------||--------4------|------5--5-----||
||--------6-------|-------(7)------||--------4------|------6--6-----||
||-------(5)------|-------(7)------||--------3------|------7--5-----||
||--------7-------|--------9-------||--------0------|------0--0-----||
         I cried many of  tears and drank plenty of alcohol

||--------x-------|6--7----7-------||2--3----3------|4--5--5--4--3--||
||5------(5)------|--------x-------||--------x------|------x--x--x--||
||--------7-------|-------(7)------||--------4------|------5--4--3--||
||--------6-------|-------(7)------||--------4------|------6--5--4--||
||-------(5)------|-------(7)------||--------3------|------7--6--5--||
||--------7-------|--------9-------||--------0------|------0--0--0--||
     And I'd love to sing for you baby i would sing all night long

||5---------------|----------------||---------------|---------------||
||x---------------|----------------||---------------|---------------||
||5---------------|----------------||---------------|---------------||
||6---------------|----------------||---------------|---------------||
||7---------------|----------------||---------------|---------------||
||0---------------|----------------||---------------|---------------||
  But it's gonna take a lot for me to write another love song

||--------x-------|6--7----7-------||2--3----3------|4--5--5--5-----||
||5------(5)------|--------x-------||--------x------|------x--x-----||
||--------7-------|-------(7)------||--------4------|------5--5-----||
||--------6-------|-------(7)------||--------4------|------6--6-----||
||-------(5)------|-------(7)------||--------3------|------7--5-----||
||--------7-------|--------9-------||--------0------|------0--0-----||
                                                         I'll never write another

||--------x-------|6--7----7-------||2--3----3------|4--5--5--5-----||
||5------(5)------|--------x-------||--------x------|------x--x-----||
||--------7-------|-------(7)------||--------4------|------5--5-----||
||--------6-------|-------(7)------||--------4------|------6--6-----||
||-------(5)------|-------(7)------||--------3------|------7--5-----||
||--------7-------|--------9-------||--------0------|------0--0-----||
       Love song                                       You may think that it's

||--------x-------|6--7----7-------||2--3----3------|4--5--5--5-----||
||5------(5)------|--------x-------||--------x------|------x--x-----||
||--------7-------|-------(7)------||--------4------|------5--5-----||
||--------6-------|-------(7)------||--------4------|------6--6-----||
||-------(5)------|-------(7)------||--------3------|------7--5-----||
||--------7-------|--------9-------||--------0------|------0--0-----||
    Wrong               well, well, well, well         but I'll never write

||--------x-------|6--7----7-------||2--3--3--5--5--|---------------||
||5------(5)------|--------x-------||---------x--x--|---------------||
||--------7-------|-------(7)------||---------5--5--|---------------||
||--------6-------|-------(7)------||---------6--6--|---------------||
||-------(5)------|-------(7)------||---------7--5--|---------------||
||--------7-------|--------9-------||---------0--0--|---------------||
   Another love song


Verse
||--------x-------|6--7----7-------||2--3----3------|4--5--5--5-----||
||5------(5)------|--------x-------||--------x------|------x--x-----||
||--------7-------|-------(7)------||--------4------|------5--5-----||
||--------6-------|-------(7)------||--------4------|------6--6-----||
||-------(5)------|-------(7)------||--------3------|------7--5-----||
||--------7-------|--------9-------||--------0------|------0--0-----||
 I had a couple girls that I loved real dearly sincerely, always kept 'em near me

||--------x-------|6--7----7-------||2--3----3------|4--5--5--5-----||
||5------(5)------|--------x-------||--------x------|------x--x-----||
||--------7-------|-------(7)------||--------4------|------5--5-----||
||--------6-------|-------(7)------||--------4------|------6--6-----||
||-------(5)------|-------(7)------||--------3------|------7--5-----||
||--------7-------|--------9-------||--------0------|------0--0-----||
Together we seen the future so clearly bein' optimistic and talking 'bout the years, we'd

||--------x-------|6--7----7-------||2--3----3------|4--5--5--5-----||
||5------(5)------|--------x-------||--------x------|------x--x-----||
||--------7-------|-------(7)------||--------4------|------5--5-----||
||--------6-------|-------(7)------||--------4------|------6--6-----||
||-------(5)------|-------(7)------||--------3------|------7--5-----||
||--------7-------|--------9-------||--------0------|------0--0-----||
Keep it going, and be together so long we used to talk about forever but forever is gone

||--------x-------|6--7----7-------||2--3--3--5--5--|---------------||
||5------(5)------|--------x-------||---------x--x--|---------------||
||--------7-------|-------(7)------||---------5--5--|---------------||
||--------6-------|-------(7)------||---------6--6--|---------------||
||-------(5)------|-------(7)------||---------7--5--|---------------||
||--------7-------|--------9-------||---------0--0--|---------------||
That's why these days, I assume the worst I'll never write a love tune or verse, I'm 
saying cuz


Chorus
||--------x-------|6--7----7-------||2--3----3------|4--5--5--5-----||
||5------(5)------|--------x-------||--------x------|------x--x-----||
||--------7-------|-------(7)------||--------4------|------5--5-----||
||--------6-------|-------(7)------||--------4------|------6--6-----||
||-------(5)------|-------(7)------||--------3------|------7--5-----||
||--------7-------|--------9-------||--------0------|------0--0-----||
         I seen many of  days with my back against the wall

||--------x-------|6--7----7-------||2--3----3------|4--5--5--5-----||
||5------(5)------|--------x-------||--------x------|------x--x-----||
||--------7-------|-------(7)------||--------4------|------5--5-----||
||--------6-------|-------(7)------||--------4------|------6--6-----||
||-------(5)------|-------(7)------||--------3------|------7--5-----||
||--------7-------|--------9-------||--------0------|------0--0-----||
         I cried many of  tears and drank plenty of alcohol

||--------x-------|6--7----7-------||2--3----3------|4--5--5--4--3--||
||5------(5)------|--------x-------||--------x------|------x--x--x--||
||--------7-------|-------(7)------||--------4------|------5--4--3--||
||--------6-------|-------(7)------||--------4------|------6--5--4--||
||-------(5)------|-------(7)------||--------3------|------7--6--5--||
||--------7-------|--------9-------||--------0------|------0--0--0--||
     And I'd love to sing for you baby I would sing all night long

||5---------------|----------------||---------------|---------------||
||x---------------|----------------||---------------|---------------||
||5---------------|----------------||---------------|---------------||
||6---------------|----------------||---------------|---------------||
||7---------------|----------------||---------------|---------------||
||0---------------|----------------||---------------|---------------||
  But it's gonna take a lot for me to write another love song

||--------x-------|6--7----7-------||2--3----3------|4--5--5--5-----||
||5------(5)------|--------x-------||--------x------|------x--x-----||
||--------7-------|-------(7)------||--------4------|------5--5-----||
||--------6-------|-------(7)------||--------4------|------6--6-----||
||-------(5)------|-------(7)------||--------3------|------7--5-----||
||--------7-------|--------9-------||--------0------|------0--0-----||
                                                         I'll never write another

||--------x-------|6--7----7-------||2--3----3------|4--5--5--5-----||
||5------(5)------|--------x-------||--------x------|------x--x-----||
||--------7-------|-------(7)------||--------4------|------5--5-----||
||--------6-------|-------(7)------||--------4------|------6--6-----||
||-------(5)------|-------(7)------||--------3------|------7--5-----||
||--------7-------|--------9-------||--------0------|------0--0-----||
       Love song                                       You may think that it's

||--------x-------|6--7----7-------||2--3----3------|4--5--5--5-----||
||5------(5)------|--------x-------||--------x------|------x--x-----||
||--------7-------|-------(7)------||--------4------|------5--5-----||
||--------6-------|-------(7)------||--------4------|------6--6-----||
||-------(5)------|-------(7)------||--------3------|------7--5-----||
||--------7-------|--------9-------||--------0------|------0--0-----||
    Wrong               well, well, well, well         but I'll never write

||--------x-------|6--7----7-------||2--3--3--5--5--|---------------||
||5------(5)------|--------x-------||---------x--x--|---------------||
||--------7-------|-------(7)------||---------5--5--|---------------||
||--------6-------|-------(7)------||---------6--6--|---------------||
||-------(5)------|-------(7)------||---------7--5--|---------------||
||--------7-------|--------9-------||---------0--0--|---------------||
   Another love song


Verse
||--------x-------|6--7----7-------||2--3----3------|4--5--5--5-----||
||5------(5)------|--------x-------||--------x------|------x--x-----||
||--------7-------|-------(7)------||--------4------|------5--5-----||
||--------6-------|-------(7)------||--------4------|------6--6-----||
||-------(5)------|-------(7)------||--------3------|------7--5-----||
||--------7-------|--------9-------||--------0------|------0--0-----||
I wrote a couple love songs in haste and now the chords and the melodies have gone to waste

||--------x-------|6--7----7-------||2--3----3------|4--5--5--5-----||
||5------(5)------|--------x-------||--------x------|------x--x-----||
||--------7-------|-------(7)------||--------4------|------5--5-----||
||--------6-------|-------(7)------||--------4------|------6--6-----||
||-------(5)------|-------(7)------||--------3------|------7--5-----||
||--------7-------|--------9-------||--------0------|------0--0-----||
Ask my boy Fraz, 'bout the one that we co-wrote sang it at his wedding three months 
the ho broke out

||--------x-------|6--7----7-------||2--3----3------|4--5--5--5-----||
||5------(5)------|--------x-------||--------x------|------x--x-----||
||--------7-------|-------(7)------||--------4------|------5--5-----||
||--------6-------|-------(7)------||--------4------|------6--6-----||
||-------(5)------|-------(7)------||--------3------|------7--5-----||
||--------7-------|--------9-------||--------0------|------0--0-----||
Thats what I'm rappin about so with myself I'm just tryin' to take the pacifist route

||--------x-------|6--7----7-------||2-----3--5--5--|--3------------||
||5------(5)------|--------x-------||---------x--x--|--x------------||
||--------7-------|-------(7)------||---------5--5--|--3------------||
||--------6-------|-------(7)------||---------6--6--|--4------------||
||-------(5)------|-------(7)------||---------7--5--|--5------------||
||--------7-------|--------9-------||---------0--0--|--0------------||
I want inner peace, not pain and hardships but I'mma maintain regardless I'm sayin cuz, 
ain't dead yet

||------x----x----|----6-7---7-----||-----0---------|--3------------||
||5----(5)--(5)---|----------x-----||-----7---------|--x------------||
||------7----7----|---------(7)----||-----6---------|--3------------||
||------6----6----|---------(7)----||-----7---------|--4------------||
||-----(5)--(5)---|---------(7)----||-----0---------|--5------------||
||------7---(5)---|----------x-----||-----0---------|--0------------||
				And I hope I live long. And I'll probably find another

||------x----x----|----6-7---7-----||-----0---------|--5---5--------||
||5----(5)--(5)---|----------x-----||-----7---------|--x---x--------||
||------7----7----|---------(7)----||-----6---------|--5---5--------||
||------6----6----|---------(7)----||-----7---------|--6---6--------||
||-----(5)--(5)---|---------(7)----||-----0---------|--7---5--------||
||------7---(5)---|----------x-----||-----0---------|--0---0--------||
			    And it'll probably go wrong, but oh well


Chorus
||--------x-------|6--7----7-------||2--3----3------|4--5--5--5-----||
||5------(5)------|--------x-------||--------x------|------x--x-----||
||--------7-------|-------(7)------||--------4------|------5--5-----||
||--------6-------|-------(7)------||--------4------|------6--6-----||
||-------(5)------|-------(7)------||--------3------|------7--5-----||
||--------7-------|--------9-------||--------0------|------0--0-----||
         I seen many of  days with my back against the wall

||--------x-------|6--7----7-------||2--3----3------|4--5--5--5-----||
||5------(5)------|--------x-------||--------x------|------x--x-----||
||--------7-------|-------(7)------||--------4------|------5--5-----||
||--------6-------|-------(7)------||--------4------|------6--6-----||
||-------(5)------|-------(7)------||--------3------|------7--5-----||
||--------7-------|--------9-------||--------0------|------0--0-----||
         I cried many of  tears and drank plenty of alcohol

||--------x-------|6--7----7-------||2--3----3------|4--5--5--4--3--||
||5------(5)------|--------x-------||--------x------|------x--x--x--||
||--------7-------|-------(7)------||--------4------|------5--4--3--||
||--------6-------|-------(7)------||--------4------|------6--5--4--||
||-------(5)------|-------(7)------||--------3------|------7--6--5--||
||--------7-------|--------9-------||--------0------|------0--0--0--||
     And I'd love to sing for you baby i would sing all night long

||5---------------|----------------||---------------|---------------||
||x---------------|----------------||---------------|---------------||
||5---------------|----------------||---------------|---------------||
||6---------------|----------------||---------------|---------------||
||7---------------|----------------||---------------|---------------||
||0---------------|----------------||---------------|---------------||
  But it's gonna take a lot for me to sit down with a beat and go and get all
sweet and write another love song

||--------x-------|6--7----7-------||2--3----3------|4--5--5--5-----||
||5------(5)------|--------x-------||--------x------|------x--x-----||
||--------7-------|-------(7)------||--------4------|------5--5-----||
||--------6-------|-------(7)------||--------4------|------6--6-----||
||-------(5)------|-------(7)------||--------3------|------7--5-----||
||--------7-------|--------9-------||--------0------|------0--0-----||
                                                         I'll never write another

||--------x-------|6--7----7-------||2--3----3------|4--5--5--5-----||
||5------(5)------|--------x-------||--------x------|------x--x-----||
||--------7-------|-------(7)------||--------4------|------5--5-----||
||--------6-------|-------(7)------||--------4------|------6--6-----||
||-------(5)------|-------(7)------||--------3------|------7--5-----||
||--------7-------|--------9-------||--------0------|------0--0-----||
       Love song                                       You may think that it's

||--------x-------|6--7----7-------||2--3----3------|4--5--5--5-----||
||5------(5)------|--------x-------||--------x------|------x--x-----||
||--------7-------|-------(7)------||--------4------|------5--5-----||
||--------6-------|-------(7)------||--------4------|------6--6-----||
||-------(5)------|-------(7)------||--------3------|------7--5-----||
||--------7-------|--------9-------||--------0------|------0--0-----||
    Wrong               well, well, well, well         but i'll never write

||--------x-------|6--7----7-------||2--3--3--5--5--|---------------||
||5------(5)------|--------x-------||---------x--x--|---------------||
||--------7-------|-------(7)------||---------5--5--|---------------||
||--------6-------|-------(7)------||---------6--6--|---------------||
||-------(5)------|-------(7)------||---------7--5--|---------------||
||--------7-------|--------9-------||---------0--0--|---------------||
   Another love song
comments
We did not receive enough feedback on this tab! Please rate:
print report bad tab
1 2 3 4 5
I want to post or [tab]
guest
You may want to rate the tab now too:
select rating
Please do not post tabs as comments. Select "correction" instead!