Oops, an error
Loading. Please wait.

We Are Augustines - Chapel Song Tab

2,086 views 1 this week
no commentswrite comment
1 2 3 4 5
3 more votes to show rating
add to favorites
launch autoscroll
font size
0
reset
how to read this tab
guitar tuner
Autoscroll
slow
fast
+/-
esc
set tempo
stop
Help us to improve Ultimate-Guitar.com Take our survey!
×
Author
Difficulty
novice
This song is just the same little melody repeting over and over so if you know this, you 
know the entire song.

play all notes as 8th notes.

-------------------------------------------------------------------|
-------------------------------------------------------------------|
-------------------------------------------------------------------|
--------------------------------------------------------4----------|
---4---4---4---4---5---5---5---5---4---4---4---4---4--------5---5--|
-5---5---5---5---5---5---5---5---2---2---2---2---5----5---5---5----|


Congratulations! you just learned this song! here's something just for fun(its your 
reward for learning this song)

-5---0---2---4---5---0---2---4---5---0---2---4---------9----12---9---12----|
---------------------------------------------------10----------------------|
------------------------------------------------9--------------------------|
---------------------------------------------------------------------------|
---------------------------------------------------------------------------|
---------------------------------------------------------------------------|
Suggest correction
Give kudos to tab author, rate the tab!
1 2 3 4 5
comments
print report bad tab
guest
You may want to rate the tab now too:
select rating
Wanna post a correction for this tab? Suggest correction