Oops, an error
Loading. Please wait.

We Attack On Sunday - One Squillion Monies Bass Tab

70 views 1 this week
no commentswrite comment
1 2 3 4 5
please rate
add to favorites
launch autoscroll
font size
0
reset
guitar tuner
Tab Pro tools
  • play this tab
  • loop segment
  • change instrument
  • show fretboard
  • metronome
×
Best way to learn
"We Attack On Sunday - One Squillion Monies"
Autoscroll
slow
fast
+/-
esc
set tempo
stop
Contributor
Difficulty
Tuning
novice
C G C F A D
G|----------------------------------------------------------------------|
D|--------------------------Drum Intro----------------------------------|
A|----------------------------------------------------------------------|
E|----------------------------------------------------------------------|
Open note after 2 beats into the drum intro^

How low can you go intro (not in the recording)
G|--------------------------------|
D|--------------------------------|
A|--------------------------------| x4
E|---0-0-000-00-000---------------|
How low can you go. how low can you go.

G|---------------------------|
D|---------------------------|
A|---------------------------| x4
E|--1-1-111-11-111--------0--|
Hold it out^ then end with an open note

Intro to the song in the recording:
G|------------------------------------|
D|----7-77--5-55-3--------------------|
A|------------------------------------| x4
E|------------------------------------|

Fast Intro
G|-----------------------------|
D|-----------------------------|
A|-----------------------------| x6
E|-0000-3-0000-3-5-------------|

Verse:
G|----------------------------|
D|----------------------------|
A|----------------------------| x2
E|-000------------000---------|
Triplets ^

G|------6-5--8-6-5-6-----6-5-8-6-5h6p5/12------------------|
D|---------6----------------6------------------------------|
A|---------------------------------------------------------|  x2
E|-000---------------000-----------------------------------|
To go along with the tremelo picking^


Verse part 2:
G|---------------------------------------------|
D|---------------------------------------------|
A|--3h6p3--------------------------------------| x4
E|-0------0-0-000-3h6p3-2h5p2-1----------------|
Dan's Riff^

G|-----------------------------|
D|-----------------------------|
A|---------------------3-------| x4
E|-0-121-0-0-012121320---------|
Same beat same sound of Dan's riff^


G|-------------------------------|
D|-------------------------------|
A|--------------------5----------| x2
E|-0-0-00000-000-0000------------|
Fast Breakdown^

G|------------------------------------------------|
D|------------------------------------------------|
A|------------------------------------------------| x2
E|-0-0-6-5-3--0-0-6p05p03p02p0-6p05p03p02p0-------|
Slow Breakdown^ End with open note
then get counted into the fast intro (listen to the song)

Fast Intro
G|-----------------------------|
D|-----------------------------|
A|-----------------------------| x4
E|-0000-3-0000-3-5-------------|


G|-------------------------------|
D|-------------------------------|
A|--------------------5----------| x2
E|-0-0-00000-000-0000------------|
Fast Breakdown^

G|------------------------------------------------|
D|------------------------------------------------|
A|------------------------------------------------| x2
E|-0-0-6-5-3--0-0-6p05p03p02p0-6p05p03p02p0-------|
Slow Breakdown^

G|---------------------------------------------------------|
D|---------------------------------------------------------|
A|---------------------------------------------------------| x2
E|-0--0--6--5--3---0--0--6p0-5p0-3p0-2p0--6p0-5p0-3p0-2p0--|
Extra slow Breakdown^ End with open

Song Structure:
"How low can you go" intro
Slow Intro
Fast intro
Verse (with triplets)
Verse (with tremelo picking)
Verse part 2 (Dan's riff)
Verse part 2 (the riff that sounds all too similar)
Fast Breakdown
Slow Breakdown
Fast Intro
Fast Breakdown
Slow Breakdown
Extra slow breakdown

To the UG team: this is a legit tab of a local Delaware band called We Attack On Sunday, 
We are unsigned but I'm posting this to help my new bassist learn our songs. It'd be 
really sweet if you can post this, and you can look up my band on facebook or myspace!
Thanks (:
-Dan.
comments
We did not receive enough feedback on this tab! Please rate:
print report bad tab
1 2 3 4 5
I want to post or [tab]
guest
You may want to rate the tab now too:
select rating
Please do not post tabs as comments. Select "correction" instead!