Oops, an error
Loading. Please wait.

Wes Powell - Girl Gone Gamer Tab

344 views 1 this week
no commentswrite comment
1 2 3 4 5
3 more votes to show rating
add to favorites
launch autoscroll
font size
0
reset
how to read this tab
guitar tuner
Autoscroll
slow
fast
+/-
esc
set tempo
stop
Help us to improve Ultimate-Guitar.com Take our survey!
×
Author
Difficulty
intermediate
-------------------------------------------------------------------------------
                         Girl Gone Gamer - Wes Powell
-------------------------------------------------------------------------------
Tabbed by:
E-mail:

Tuning:

VERSE:
e|-------3-----------------5-------------------------------------------------|
B|-----3---3-------------5---5-------------7-----------------6---7-----------|
G|---4-------4---4-----5-------5---5-----7---7-------------9-------7---------|
D|-5-----------5---5/7-----------7-----7-------7---7-----9-----------7-------|
A|-----------------------------------5-----------5---5/7-------x-------------|
E|---------------------------------------------------------------------------|

PRE-CHORUS:
e|-2-2--X-X-X-X--0-0--X-X-X-X--0-0--X-X-X-X----------------------------------|
B|-3-3--X-X-X-X--3-3--X-X-X-X--0-0--X-X-X-X----------------------------------|
G|-0-0--X-X-X-X--2-2--X-X-X-X--0-0--X-X-X-X----------------------------------|
D|-0-0--X-X-X-X--0-0--X-X-X-X--2-2--X-X-X-X----------------------------------|
A|-2-2--X-X-X-X--0-0--X-X-X-X--2-2--X-X-X-X--2h3-3-3-3-3-3p2p0---------------|
E|-3-3--X-X-X-X--2-2--X-X-X-X--0-0--X-X-X-X----------------------------------|

CHORUS
e|-3--X--3-3--X-X--3-3--X--3-3--3/5--X--5-5--X-X--5-5--X--5-5--X-X-----X-----|
B|-3--X--3-3--X-X--3-3--X--3-3--3/5--X--5-5--X-X--5-5--X--5-5--X-X--7--X-----|
G|-4--X--4-4--X-X--4-4--X--4-4--4/5--X--5-5--X-X--5-5--X--5-5--X-X--7--X-----|
D|-5--X--5-5--X-X--5-5--X--5-5--5/7--X--7-7--X-X--7-7--X--7-7--X-X--7--X-----|
A|-5--X--5-5--X-X--5-5--X--5-5--5/7--X--7-7--X-X--7-7--X--7-7--X-X--5--X-----|
E|-3--X--3-3--X-X--3-3--X--3-3--3/5--X--5-5--X-X--5-5--X--5-5--X-X-----X-----|

e|------X-X--------X-----------7--X--7-7--X-X--7-7---------------------------|
B|-7-7--X-X--7-7--X--7-7-----8--X--8-8--X-X--8-8--7-7------------------------|
G|-7-7--X-X--7-7--X--7-7-----9--X--9-9--X-X--9-9--7-7------------------------|
D|-7-7--X-X--7-7--X--7-7-----9--X--9-9--X-X--9-9--7-7------------------------|
A|-5-5--X-X--5-5--X--5-5-5/7-7--X--7-7--X-X--7-7--5-5------------------------|
E|------X-X---------X--------------X-------X-X-------------------------------|


************************************

| /   slide up
| \   slide down
| h   hammer-on
| p   pull-off
| ~   vibrato
| +   harmonic
| x   Mute note
| b   Bend
| pb  Pre-bend
| br  Bend release
| pbr Pre-bend release
| brb Bend release bend

************************************
Suggest correction
Give kudos to tab author, rate the tab!
1 2 3 4 5
comments
print report bad tab
guest
You may want to rate the tab now too:
select rating
Wanna post a correction for this tab? Suggest correction