Oops, an error
Loading. Please wait.

When Skies Decide - Your Lies Bass Tab

48 views 1 this week
no commentswrite comment
1 2 3 4 5
please rate
add to favorites
launch autoscroll
font size
0
reset
guitar tuner
Tab Pro tools
  • play this tab
  • loop segment
  • change instrument
  • show fretboard
  • metronome
Autoscroll
slow
fast
+/-
esc
set tempo
stop
Contributor
Difficulty
Tuning
intermediate
C G C F A D
Intro:

F|------------------------|---------------|
C|------------------------|---------------|
G|------------------------|---------------|
C|--0--0----0--0----0--0--|--3----8--7----|


Verse:

F|------------------------------------------------------|
C|------------------------------------------------------|
G|------------------------------------------------------|
C|--0-0-0-0-0----8-8-8-8-8----0-0-0-0-0----5-5-5-5-5----|




F|-----------------------------------------|
C|-----------------------------------------|
G|-----------------------------------------|
C|--0-0-0-0-0----8-8-8-8-8----3----8--7----|



Pre-Chorus:

F|-----------------------------------------------|
C|-----------------------------------------------|
G|-----------------------------------------------|
C|--0-0-0-0-0-0----0-0-0-0-0-0----0-0-0-0-0-0----|



Chorus:

F|-------------------------------------------------|
C|-------------------------------------------------|
G|-------------------------------------------------|
C|--0--8--7----3--5--7----0--8--7----10--11--12----|



After Chorus:

F|-----------------------------------------------------|
C|----------------------5------------------------------|
G|----------5-8-----------7---------5-8-5-3-(3)/7-5----|
C|--0-0-0-0-----0-0-0-0-----0-0-0-0--------------------|




Outro:
                                     Every other
G|----------------------------------|-----------|
D|----------------------------------|-----------|
A|----------------------------------|-----------|
D|--3-2-0-2-3-2-0----3-2-0-2-3-2-0--|---0--0----|



G|------------------------------------|
D|------------------------------------|
A|------------------------------------|
D|--3-2-0-2-3-5-2----3-2-0-2-3-5-2----|
comments
We did not receive enough feedback on this tab! Please rate:
print report bad tab
1 2 3 4 5
I want to post or [tab]
guest
You may want to rate the tab now too:
select rating
Please do not post tabs as comments. Select "correction" instead!