Oops, an error
Loading. Please wait.

When Walls Collapse - We Break The Silence Bass Tab

48 views 3 this week
no commentswrite comment
1 2 3 4 5
please rate
add to favorites
launch autoscroll
font size
0
reset
guitar tuner
Tab Pro tools
  • play this tab
  • loop segment
  • change instrument
  • show fretboard
  • metronome
Autoscroll
slow
fast
+/-
esc
set tempo
stop
Contributor
Tuning
D A D G B E
-------------------------------------------------------------------------------             
We Break The Silence - When Walls Collapse 
-------------------------------------------------------------------------------


Tuning: Drop D (DADG)


G|---------------------------------------------------------------------------|
D|---------------------------------------------------------------------------|
A|---------------------------------------------------------------------------|
E|--00----00000----000---00000----00----00000----000---00000-----------------| x4


G|---------------------------------------------------------------------------|
D|---------------------------------------------------------------------------|
A|---------------------------------------------------------------------------|
E|--0~-----------------------------------------------------------------------|


G|---------------------------------------------------------------------------|
D|---------------------------------------------------------------------------|
A|-----8-12---10------------8-12---10---7------------------------------------|
E|--00------0----8--0000000------0----8---8----------------------------------| x4


G|---------------------------------------------------------------------------|
D|---------------------------------------------------------------------------|
A|---------------------------------------------------------------------------|
E|--0000----0000----0000----12/0---------------------------------------------|


G|---------------------------------------------------------------------------|
D|---------------------------------------------------------------------------|
A|----------------------------------------------3---3------------------------|
E|--0000----0000----0000----0--00000--0-0-0-0-0---0--------------------------| x3

G|---------------------------------------------------------------------------|
D|---------------------------------------------------------------------------|
A|---------------------------------------------------------------------------|
E|--0000----0000----0000----0--00000--0-0-0-0-0------------------------------|


G|---------------------------------------------------------------------------|
D|---------------------------------------------------------------------------|
A|---------------------------------------------------------------------------|
E|--000-000~-------000-000~--3-2--3-2----------------------------------------|x2

G|---------------------------------------------------------------------------|
D|---------------------------------------------------------------------------|
A|---------------------------------------------------------------------------|
E|--000-000-0-0-0-0-0-0-0-0-0-0-000-000-0-0-0-0-0-0-3-2----------------------|2x

G|---------------------------------------------------------------------------|
D|---------------------------------------------------------------------------|
A|-----8-12---10------------8-12---10---7------------------------------------|
E|--00------0----8--0000000------0----8---8----------------------------------| x4

G|---------------------------------------------------------------------------|
D|---------------------------------------------------------------------------|
A|---------------------------------------------------------------------------|
E|--0000----0000----0000----12/0---------------------------------------------|


G|---------------------------------------------------------------------------|
D|---------------------------------------------------------------------------|
A|----------------------------------------------3---3------------------------|
E|--0000----0000----[0000]----0--00000--0-0-0-0-0---0------------------------| x4

G|---------------------------------------------------------------------------|
D|---------------------------------------------------------------------------|
A|---------------------------------------------------------------------------|
E|--000-000~-------000-000~--3-2--3-2----------------------------------------|x2

G|---------------------------------------------------------------------------|
D|---------------------------------------------------------------------------|
A|---------------------------------------------------------------------------|
E|--000-000-0-0-0-0-0-0-0-0-0-0-000-000-0-0-0-0-0-0-3-2----------------------|2x

G|---------------------------------------------------------------------------|
D|---------------------------------------------------------------------------|
A|---------------------------------------------------------------------------|
E|--000000000---------000000000~-------000000000-------000000000--00--00-----| 2x

G|---------------------------------------------------------------------------|
D|---------------------------------------------------------------------------|
A|---------------------------------------------------------------------------|
E|--00----00----00----00----00----00----00----0h3----------------------------|

G|---------------------------------------------------------------------------|
D|---------------------------------------------------------------------------|
A|---------------------------------------------------------------------------|
E|--00----00----00----00----00----00----00-----------------------------------|


www.facebook.com/whenwallscollapseofficial
www.whenwallscollapse.com


************************************

| /   slide up
| \   slide down
| h   hammer-on
| p   pull-off
| ~   vibrato
| +   harmonic
| x   Mute note
| b   Bend
| pb  Pre-bend
| br  Bend release
| pbr Pre-bend release
| brb Bend release bend

************************************
comments
We did not receive enough feedback on this tab! Please rate:
print report bad tab
1 2 3 4 5
I want to post or [tab]
guest
You may want to rate the tab now too:
select rating
Please do not post tabs as comments. Select "correction" instead!