Oops, an error
Loading. Please wait.

Whenheroesfall - Death Before Dishonor Bass Tab

398 views 1 this week
no commentswrite comment
1 2 3 4 5
3 more votes to show rating
add to favorites
launch autoscroll
font size
0
reset
guitar tuner
Autoscroll
slow
fast
+/-
esc
set tempo
stop
Help us to improve Ultimate-Guitar.com Take our survey!
×
Author
Difficulty
Tuning
novice
C G C F A D
Death Before Dishonor - Bass Tabs

DROP C

intro
F||---------------------||
C||---5-4---7--5--------||
G||-------5-----7-------||  X4
C||---------------------||

verse
F||------------------------------------------||
C||-------------------------3--3---/5--5--5--||  < 1 yan ha hnd 11
G||----5555555555555780---11-11-/33-33-33----||  X4
C||------------------------------------------||

precho
F||-------------------------------------------------------||
C||-------------------------------------------------------|| yan 15 tlga
G||-------------------------------------------1-----------||  X2 
C||---000--15/0---000--15/0---000--15/0---000--310--------||

chorus
F||------------------------------------------||
C||------------------------------------------|| 
G||------------------------------------------|| X4
C||---00-0003-3-333/9999999/777777^10--------||
                                   
verse
F||------------------------------------------||
C||-------------------------3--3---/5--5--5--||  < 1 yan ha hnd 11
G||----5555555555555780---11-11-/33-33-33----||  X4
C||------------------------------------------||

precho
F||-------------------------------------------------------||
C||-------------------------------------------------------|| yan 15 tlga
G||-------------------------------------------1-----------||  X2 
C||---000--15/0---000--15/0---000--15/0---000--310--------||
                         
chorus
F||------------------------------------------||
C||------------------------------------------|| 
G||------------------------------------------|| X4
C||---00-0003-3-333/9999999/777777^10--------||

bidge
F||---------------------------------------------------------------------------------------|| 
C||---------------------------------------------------------------------------------------|| X2 
G||--------------------------------------------------------------------------------1------||   
C||-000015/0---000015/0---000015/0---000015/0----pause----15/0000x-0000x-0000x-0000-310---||
                  

verse
F||------------------------------------------||
C||-------------------------3--3---/5--5--5--||  < 1 yan ha hnd 11
G||----5555555555555780---11-11-/33-33-33----||  X4
C||------------------------------------------||

chorus
F||------------------------------------------||
C||------------------------------------------|| 
G||------------------------------------------|| X4
C||---00-0003-3-333/9999999/777777^10--------||

verse
F||------------------------------------------||
C||-------------------------3--3---/5--5--5--||  < 1 yan ha hnd 11
G||----5555555555555780---11-11-/33-33-33----||  X4
C||------------------------------------------||

chorus
F||------------------------------------------||
C||------------------------------------------|| 
G||------------------------------------------|| X4
C||---00-0003-3-333/9999999/777777^10--------||

Suggest correction
Give kudos to tab author, rate the tab!
1 2 3 4 5
comments
print report bad tab
guest
You may want to rate the tab now too:
select rating
Wanna post a correction for this tab? Suggest correction