Oops, an error
Loading. Please wait.

Whenheroesfall - My First Sad Christmas Bass Tab

71 views 1 this week
no commentswrite comment
1 2 3 4 5
3 more votes to show rating
add to favorites
launch autoscroll
font size
0
reset
guitar tuner
Autoscroll
slow
fast
+/-
esc
set tempo
stop
Help us to improve Ultimate-Guitar.com Take our survey!
×
Author
Difficulty
Tuning
novice
C G C F A D
My First Sad Christmas - Bass Tab

DROP C

intro
F||----------------------------------||
C||----------------------------------||
G||----------------------------------||  X3
C||---9x16---7x16---5x16---3x16------||

verse
F||----------------------------------||
C||----------------------------------||
G||----------------------------------||  X3
C||---9x16---7x16---3x16---5x16------||

precho
F||-------------------------------------------||
C||-------------------------------------------||
G||-------------------------------------------||  X3 
C||---3-3333---5-5555-----1-1111----01301301--||

chorus
F||------------------------------------||||------------------------------------|| 
C||------------------------------------||||------------------------------------|| X2  
G||------------------------------------||||------------------------------------||   
C||---7x8--5x4--10x4--3x16---5x16------||||---7x8--5x4--2x6--3x16---5x16-------||
                       ^mabilis^                              ^mabilis^
bridge
F||------------||
C||------------||
G||------------||  X4 verse
C||---9---7----||

verse
F||---------------------------------||
C||---------------------------------||
G||---------------------------------||  X4 
C||---9x16---7x16---then slide 17/9-||

intro
F||------------------------------------||
C||------------------------------------||
G||------------------------------------||  1X
C||---9x16---7x16---5x16---3x16--00----||
                                xx
precho
F||-------------------------------------------||
C||-------------------------------------------||
G||-------------------------------------------||  X3 
C||---3-3333---5-5555-----1-1111----01301301--||

chorus
F||------------------------------------||||------------------------------------|| 
C||------------------------------------||||------------------------------------|| X2 
G||------------------------------------||||------------------------------------||   
C||---7x8--5x4--10x4--3x16---5x16------||||---7x8--5x4--2x6--3x16---5x16-------||
                       ^mabilis^                              ^mabilis^
intro
F||------------------------------------||
C||------------------------------------||
G||------------------------------------||  1X
C||---9x16---7x16---5x16---3x16--00----||
                                
Suggest correction
Give kudos to tab author, rate the tab!
1 2 3 4 5
comments
print report bad tab
guest
You may want to rate the tab now too:
select rating
Wanna post a correction for this tab? Suggest correction