Oops, an error
Loading. Please wait.

White Dice - Just To See Her Smile Bass Tab

261 views 1 this week
no commentswrite comment
1 2 3 4 5
3 more votes to show rating
add to favorites
launch autoscroll
font size
0
reset
guitar tuner
Autoscroll
slow
fast
+/-
esc
set tempo
stop
Help us to improve Ultimate-Guitar.com Take our survey!
×
Author
Difficulty
Tuning
novice
D# G# C# F# A# D#
This tab is of a song that is featured in the adult dvd "True F**ing Love". this band
most of there songs half a step down, so the tuning is D# G# C# F# but this is a live
that he plays, so it isn't exactly the same as the recording, but it works fine if your 
it over the track.

Enjoy :D

This is the main part of the song is a simple pop punk style, where the bass just
the root notes of the rhythm Guitar.


D#  --------------------------------3-3-3-3-3-3-3-3-3-3-3-3-3-3-3-3-|
G#  3-3-3-3-3-3-3-3-0-0-0-0-0-0-0-0---------------------------------|
C#  ----------------------------------------------------------------|
F#  ----------------------------------------------------------------|

The stop's simple enough, just remember that your not stopping on the end of the 3rd
but the first note of the 4th bar. so you are playing G# 3 eight times, G# 0 eight times
D# 3 nine times then stop, and that its a dead stop.

D#  --------------------------------3-3-3-3-3-3-3-3-3--------------|
G#  3-3-3-3-3-3-3-3-0-0-0-0-0-0-0-0--------------------------------|
C#  ---------------------------------------------------------------|
F#  ---------------------------------------------------------------|

The Brake down is one of the difference's with the recording, but works fine with it.
the bass player does here when playing live is pick though power chords.

D#  --------------------------------3--------------3------------------|
G#  3---------------0----------------------5---------------5----------|
C#  ----5-------5-------2-------2-------------------------------------|
F#  --------5---------------2-----------------------------------------|


For the build up, he starts in the same place as the main body of the song, at first he
playing quietly, then just uses the octaves on the same string while getting louder and
while at the end using the same timing on the stop as in the main body of the song uses.

D# ------------------------------------------------------------------------|
G# 3-3-3-3-3-3-3-3-12-12-12-12-12-12-12-12-8-8-8-8-8-8-8-8-8-8-8-8-8-8-8-8-|
C# ------------------------------------------------------------------------|
F# ------------------------------------------------------------------------|

D# -----------------------------------------------------------------------|
G# 15-15-15-15-15-15-15-15-12-12-12-12-12-12-12-12-PLAY-8-NINE-TIMES------|
C# -----------------------------------------------------------------------|
F# -----------------------------------------------------------------------|

Then its back to the standard main body of the song.

D#  --------------------------------3-3-3-3-3-3-3-3-3-3-3-3-3-3-3-3-|
G#  3-3-3-3-3-3-3-3-0-0-0-0-0-0-0-0---------------------------------|
C#  ----------------------------------------------------------------|
F#  ----------------------------------------------------------------|


If you get a bit board and want to change it up at the end, then the Bassist of the band
been known to play this bit at random times.


D#  --------------------------------3-5-------5-3-3-5-------5-3----|
G#  3-3-3-3-3-3-3-3-0-0-0-0-0-0-0-0-----3-5-3---------3-5-3--------|
C#  ---------------------------------------------------------------|
F#  ---------------------------------------------------------------|


The end is simple enough, just play the standard body of the song and play the first
of the first bar at the end.

D#  --------------------------------3-3-3-3-3-3-3-3-3-3-3-3-3-3-3-3---|
G#  3-3-3-3-3-3-3-3-0-0-0-0-0-0-0-0---------------------------------3-|
C#  ------------------------------------------------------------------|
F#  ------------------------------------------------------------------|


If you have any comments on this tab then please drop me an email to Yipme@hotmail.co.uk
you enjoy :D
Suggest correction
Give kudos to tab author, rate the tab!
1 2 3 4 5
comments
print report bad tab
guest
You may want to rate the tab now too:
select rating
Wanna post a correction for this tab? Suggest correction