Oops, an error
Loading. Please wait.

Whitefield - Bad Romance Bass Tab

121 views 1 this week
no commentswrite comment
1 2 3 4 5
please rate
add to favorites
launch autoscroll
font size
0
reset
guitar tuner
Tab Pro tools
  • play this tab
  • loop segment
  • change instrument
  • show fretboard
  • metronome
×
Best way to learn
"Whitefield - Bad Romance"
Autoscroll
slow
fast
+/-
esc
set tempo
stop
Contributor
Difficulty
novice
Whitefield - Bad romance (Lady Gaga cover)
Ciaran Qute - guitar & vocals
Jimmy B - Bass & vocals
Kurk Heathfield - drums & vocals

Intro 
G|------------------------------------------------|
D|----2-2-3-2-----2-2-3-2-----2-2-3-2-------------| (x2)
A|0-0---------0-0---------0-0---------3-3-0-3-0-3-|
E|------------------------------------------------|

Verse
G|----------------------------------------------------------------|
D|----------------------------------------------------------------| (x4)
A|----------------3-3-3-3-8-8-8-8-----------------3-3-3-3---------|
E|5-5-5-5-5-5-5-5-----------------5-5-5-5-5-5-5-5---------3-3-3-3-|

Pre-chorus/bridge
G|-------------------------|
D|-------------------------|
A|-------------------------|
E|5*---5*---5*---5-5-5-5-5-|

Chorus
G|----------------------------------------------------------------|
D|----------------------------------------------------------------|(x4)
A|------------------------------------------------3-3-3-3-3-3-3-3-|
E|1-1-1-1-1-1-1-1-3-3-3-3-3-3-3-3-5-5-5-5-5-5-5-5-----------------|
comments
We did not receive enough feedback on this tab! Please rate:
print report bad tab
1 2 3 4 5
I want to post or [tab]
guest
You may want to rate the tab now too:
select rating
Please do not post tabs as comments. Select "correction" instead!