Oops, an error
Loading. Please wait.

Whitefield - Break The Ice Bass Tab

15 views 1 this week
no commentswrite comment
1 2 3 4 5
3 more votes to show rating
add to favorites
launch autoscroll
font size
0
reset
guitar tuner
Autoscroll
slow
fast
+/-
esc
set tempo
stop
Help us to improve Ultimate-Guitar.com Take our survey!
×
Author
Difficulty
novice
Whitefield original - Break the ice (c)
Tabbed by Adam Whitby

Intro/verses
G|----11-----11---11-----9-----9---9-----11-----11---11-----7-----7---7-|
D|0-0----0-0----0----7-7---7-7---7---9-9----9-9----9----5-5---5-5---5---|
A|----------------------------------------------------------------------|
E|----------------------------------------------------------------------|

Chorus
G|----------------------------------------------------------------|
D|----------------------------------------------------------------|
A|5-5-5-5-5-5-5-5-------------------------------------------------|
E|----------------5-5-5-5-5-5-5-5-7-7-7-7-7-7-7-7-3-3-3-3-3-3-3-3-|

Bridge
G|11-12-14-12-11-9-6-7-9-7-6-11-9-11-12-11-9-7---|
D|---------------------------------------------5-|
A|-----------------------------------------------|
E|-----------------------------------------------|

verse x4
chorus x2
Verse x4
chorus x2
bridge x2
Chorus x4
Suggest correction
Give kudos to tab author, rate the tab!
1 2 3 4 5
comments
print report bad tab
guest
You may want to rate the tab now too:
select rating
Wanna post a correction for this tab? Suggest correction