Oops, an error
Loading. Please wait.

Whitefield - Katys On The Drip Bass Tab

23 views 1 this week
no commentswrite comment
1 2 3 4 5
2 more votes to show rating
add to favorites
launch autoscroll
font size
0
reset
guitar tuner
Autoscroll
slow
fast
+/-
esc
set tempo
stop
Help us to improve Ultimate-Guitar.com Take our survey!
×
Author
Difficulty
intermediate
Whitefield - Katy's On The Drip (c) 

Ciaran Smith - Vocals and guitar
Adam Whitby - Bass 
Kirk Heathfield - Drums

Bass tab
Written and performed by Ciaran Smith, Adam Whitby and Kirk Heathfield

Verse and outro
G|----------------|
D|--2---0-2--2----|
A|----2-----------|
E|0---------------|

Chorus
G|----------------------------------------------------7-----7-5-------|
D|--------------------------------------------------------------7h5---|
A|5-5-5-5-----3h5-3-3-3-3-----3h5-7-7-7-7-7-7-7-7-5-5---5-5-----------|
E|--------3h5-------------3h5-----------------------------------------|

Post-chorus
G|-------------------------------------------------------------------|
D|-------------------------------------------------------------------|
A|5-5-5-5-----3h5-3-3-3-3-----3h5-7-7-7-7-7-7-7-7-7-7-7-7-7-7-7-7----|
E|--------3h5-------------3h5----------------------------------------|

Bridge
G|---------------|
D|---------------|
A|7--5--3--2--5--|
E|---------------|

Order:
Verse x8
Chorus x3
Post-chorus x1
Verse x8
Chorus x3
Post-chorus x1
Bridge x4
Chorus x3
Post-chorus x1
Verse x4

Suggest correction
Give kudos to tab author, rate the tab!
1 2 3 4 5
comments
print report bad tab
guest
You may want to rate the tab now too:
select rating
Wanna post a correction for this tab? Suggest correction