Oops, an error
Loading. Please wait.

Whitefield - Snakes And Broken Ladders Bass Tab

114 views 1 this week
no commentswrite comment
1 2 3 4 5
2 more votes to show rating
add to favorites
launch autoscroll
font size
0
reset
guitar tuner
Autoscroll
slow
fast
+/-
esc
set tempo
stop
Help us to improve Ultimate-Guitar.com Take our survey!
×
Author
Difficulty
intermediate
Whitefield - snakes and broken ladders (c)
Ciaran Qute - guitar & vocals
Jimmy B - Bass & vocals
Kurk Heathfield - drums & vocals

Intro/verse
G|----------------------------------------------------------------|
D|5-----5-----5---4-----4-----4---2-----2-----2---2-----2-----2---|
A|--7-7---7-7---7---5-5---5-5---5---3-3---3-3---3---3-3---3-3---3-|
E|----------------------------------------------------------------|

G|--------------------------------4-----4-----4-------------------|
D|5-----5-----5---4-----4-----4-----5-5---5-5---5-2-----2-----2---|
A|--7-7---7-7---7---5-5---5-5---5-------------------3-3---3-3---3-|
E|----------------------------------------------------------------|

Chorus
G|----------------------------------------------------------------|
D|5-----5-----5---4-----4-----4---2-----2-----2---4-----2-----2---|
A|--5-5---5-5---5---5-5---5-5---5---3-3---3-3---3---3-3---3-3---3-|
E|----------------------------------------------------------------|

Bridge
G|------------------------|
D|--------5-----7-----7---|
A|--7---------------------|
E|5---5-7---7-8---8-8---8-|


Intro x1
Verse x2
Chorus x4
verse x3
Chorus x4
Bridge x4
Chorus x4

Suggest correction
Give kudos to tab author, rate the tab!
1 2 3 4 5
comments
print report bad tab
guest
You may want to rate the tab now too:
select rating
Wanna post a correction for this tab? Suggest correction