Oops, an error
Loading. Please wait.

Woodley - Release My Soul tab

82 views 3 this week
no commentswrite comment
1 2 3 4 5
3 more votes to show rating
add to favorites
×
Save as Personal and add changes to this tab that will be seen only by you. Learn more ›
×
You can save this tab as Personal to edit and correct it or add notes. All changes will be seen only by you. Learn more »
launch autoscroll
font size
0
reset
how to read this tab
guitar tuner
edit
Autoscroll
slow
fast
+/-
esc
set tempo
stop
Author
Unregistered
[Opening]

E|------------1p0------------1p0--4p0------------1p0-------|
B|----------------------------------------------------1p0--|
G|---------------------------------------------------------|
D|-----0h2p0----------0h2p0---------------0h2p0------------|
A|--3--------------3-------------------3-------------------|
E|---------------------------------------------------------|


[Verse]

E|------------1p0------------1p0-------|
B|--------------------------------1p1--|
G|-------------------------------------|
D|-----0h2p0----------0h2p0------------|
A|--3--------------3-------------------|
E|-------------------------------------|


[Chorus]

C  Fmaj7add4  E  Am  G  Fmaj7

2 Bars of C


[Verse]

C                       Fmaj7
You keep leading me on, with your push and pull

E                     Am       G           Fmaj7
I’m bleeding out but inside, my heart feels so full

C                         Fmaj7
You’ve overtaken my will, I’m losing control

E                      Am          G        Fmaj7
Will you relinquish your hold, and release my soul?


[Bridge/Outro]

C5  F5

(on 5th String)


************************************

| h  Hammer-on
| p  Pull-off

************************************
Suggest correction
Creating personal tab
Creating personal tab
You can edit any tab online and save it as your Personal.

You can edit, replace or remove any tab part or add personal notes – all changes will be seen only by you.

Personal tabs can be accessed anytime from any device, even offline.
Learn more »
Give kudos to tab author, rate the tab!
1 2 3 4 5
comments
print report bad tab
guest
Wanna post a correction for this tab? Suggest correction