Oops, an error
Loading. Please wait.

Yellow Fever - Dead Dove Bass Tab

22 views 1 this week
no commentswrite comment
1 2 3 4 5
3 more votes to show rating
add to favorites
launch autoscroll
font size
0
reset
guitar tuner
Autoscroll
slow
fast
+/-
esc
set tempo
stop
Help us to improve Ultimate-Guitar.com Take our survey!
×
Author
Difficulty
novice
Verse:

G |-----------------------------------------------------------------------------|
D |-----------------------------------------------------------------------------|
A |-4-4-4-4-0-6-6-6-6-0-4-4-4-4-0-6-6-6-6-0-4-0-6-0-4-0-3-0-4-0-6-0-4-0-3-0-----|    x2
E |-----------------------------------------------------------------------------|

G |-------------------------------------|
D |-------------------------------------|
A |-4-0-6-0-4-0-3-0-4-0-6-0-4-0-3-0-----|    x4
E |-------------------------------------|

Bridge/Chorus:

(Guitar plays bridge part twice than Bass comes in on third time.)

G |--------------------------------------|
D |--------------------------------------|
A |-0-0-0-0-6-6-6-6-3-3-3-3-4-4-4-4------|    x8
E |--------------------------------------|

End:

G |-------------------------------------|
D |-------------------------------------|
A |-4-0-6-0-4-0-3-0-4-0-6-0-4-0-3-0-----|    x2
E |-------------------------------------|
Suggest correction
Give kudos to tab author, rate the tab!
1 2 3 4 5
comments
print report bad tab
guest
You may want to rate the tab now too:
select rating
Wanna post a correction for this tab? Suggest correction