Oops, an error
Loading. Please wait.

Yellow Fever - Master Plan Bass Tab

33 views 1 this week
no commentswrite comment
1 2 3 4 5
please rate
add to favorites
launch autoscroll
font size
0
reset
guitar tuner
Autoscroll
slow
fast
+/-
esc
set tempo
stop
Help us to improve Ultimate-Guitar.com Take our survey!
×
Author
Difficulty
novice
Band - Yellow Fever
Album - Abort
Song - Master Plan

Verse:

G |------------------------------|
D |---------------1-1-1-1--------|
A |--------2-2-2-2---------------|    x4 (Fast)
E |-1-1-1-1--------------3-3-3-3-|

Bridge/Chorus:

(Guitar plays Bridge twice then Bass slides in on third time.)

G |---------------------------------|
D |------------------1-1-1-1--------|
A |-----------2-2-2-2---------------|    x2 (Slow)
E |-13/1-1-1-1--------------3-3-3-3-|

Verse: x2
Suggest correction
Give kudos to tab author, rate the tab!
1 2 3 4 5
comments
print report bad tab
guest
You may want to rate the tab now too:
select rating
Please do not post tabs as comments. Select "correction" instead!