Oops, an error
Loading. Please wait.

You And What Army - At Lightspeed Bass Tab

223 views 1 this week
1 commentread comment
1 2 3 4 5
please rate
add to favorites
launch autoscroll
font size
0
reset
guitar tuner
Tab Pro tools
  • play this tab
  • loop segment
  • change instrument
  • show fretboard
  • metronome
×
Best way to learn
"You And What Army - At Lightspeed"
Autoscroll
slow
fast
+/-
esc
set tempo
stop
Contributor
                                        AT LIGHTSPEED

                                      YOU AND WHAT ARMY

                              SOUNDTRACK TO THE APOCALYPSE EP


                                    Tabbed by jamieyawa

                        For more... just visit www.myspace.com/jamieyawauk

Tuning - standard (5 string)


Intro

G ------------------------------------------------------------------|
D ------------------------------------------------------------------|
A ------------------------------------------------------------------|
E -0-0-0-0-0-0-0-0-0-0-0-0-0-0-0-0-2-2-2-2-2-2-2-2-3-3-3-3-3-3-3-3--|
B ------------------------------------------------------------------|

  -----------------------------------------------------------------|
  -----------------------------------------------------------------|
  -3-3-3-3-3-3-3-3-3-3-3-3-3-3-3-3-2-2-2-2-2-2-2-2-6-6-6-6-6-6-6-6-|  X2
  -----------------------------------------------------------------|
  -----------------------------------------------------------------|


Verse Riff

G ------------------------------------------------|
D ------------------------------------------------|
A --7-----------2--------5--5-5--5--4-------------|
E -----0--2--3-----3--0-----------------7--5------|
B ------------------------------------------------|

G ------------------------------------------------|
D ------------------------------------------------|
A --7-----------2--------5--5-5--7--5--4----------|
E -----0--2--3-----3--0-------------------5-------|
B ------------------------------------------------|


G ----------------------------|---------------------------|
D -----2-------2--------------|----1--------1-------------|
A --3-----3-3-----3------(X2)-|--2-----2-2-----2----------|(X2)
E -------------------3--------|-------------------2-------|
B ----------------------------|---------------------------|

Play once through before verse kicks in...


Pre Chorus

G ------------------------------------------------------------------|
D ------------------------------------------------------------------|
A ------------------------------------------------------------------|
E -0-0-0-0-0-0-0-0-0-0-0-0-0-0-0-0-2-2-2-2-2-2-2-2-3-3-3-3-3-3-3-3--|
B ------------------------------------------------------------------|

G ------------------------------------------------------------------|
D ------------------------------------------------------------------|
A -3-3-3-3-3-3-3-3-3-3-3-3-3-3-3-3-2-2-2-2-2-2-2-2-6-6-6-6-6-6-6-6--|
E ------------------------------------------------------------------|
B ------------------------------------------------------------------|


G ------------------------------------------------------------------|
D ------------------------------------------------------------------|
A ------------------------------------------------------------------|
E --0-----------RING OUT OVER EPIC SYNTHS---------------------------|
B ------------------------------------------------------------------|

Chorus


G ------------------------------------------------------------------|
D ------------------------------------------7-----------------------|
A ---------------------------------3--3--5-----5--2--2--2--2--------| X2
E --0--0--2--2--3--0--0--2--2--3------------------------------------|
B ------------------------------------------------------------------|

G ------------------------------------------------------------------|
D ------------------------------------------------------------------|
A ------------------------------------------------------------------|
E --0----------Drum Fill--------------------------------------------|
B ------------------------------------------------------------------|


Bridge

This comes in after the acoustic has played twice through

G ------------------------------------------------------------------|
D ------------------------------------------------------------------|
A --7-7-7-7-7-7-7-7-7-7-7-7-7-7-7-7-6-6-6-6-6-6-6-6-7-7-7-7-7-7-7-7-|
E ------------------------------------------------------------------|
B ------------------------------------------------------------------|


G ------------------------------------------------------------------|
D ------------------------------------------------------------------|
A -3-3-3-3-3-3-3-3-3-3-3-3-3-3-3-3-2-2-2-2-2-2-2-2-6-6-6-6-6-6-6-6--|
E ------------------------------------------------------------------|
B ------------------------------------------------------------------|

G -------------------------------------------------------------------|
D -------------------------------------------------------------------|
A --7---------------7-----7-----7----6-6-6-6-6-6-6-6-7-----7-----7---|
E ----0-0-0-0-0-0-0---0-0---0-0---0--------------------0-0---0-0---0-|
B -------------------------------------------------------------------|

G --------------------------------------------------------------------------|
D --------------------------------------------------------------------------|
A --3-3-3-3-3-3-3-3--3------3------3-------2-2-2-2-2-2-2-2--6-6-6-6-6-6-6-6-|
E --------------------------------------------------------------------------|
B ---------------------1-1-----1-1----1-------------------------------------|

G ------------------------------------------------------------------|
D ------------------------------------------------------------------|
A ------------------------------------------------------------------|
E --0-----------RING OUT OVER EPIC SYNTHS---------------------------|
B ------------------------------------------------------------------|

G ------------------------------------------------------------------|
D ------------------------------------------------------------------|
A --7-7-7-7-7-7-7-7-7-7-7-7-7-7-7-7-6-6-6-6-6-6-6-6-7-7-7-7-7-7-7-7-|
E ------------------------------------------------------------------|
B ------------------------------------------------------------------|

                                                                         X2

G ------------------------------------------------------------------|
D ------------------------------------------------------------------|
A -3-3-3-3-3-3-3-3-3-3-3-3-3-3-3-3-2-2-2-2-2-2-2-2-6-6-6-6-6-6-6-6--|
E ------------------------------------------------------------------|
B ------------------------------------------------------------------|

Outro

"Everything I ever believed...."

G ------------------------------------------------------------------|
D ------------------------------------------------------------------|
A ----------7--7-----------7--7--6--6--6-------7--7--7--------------|
E --0--0--0-------0--0--0----------------0--0------------0--0-------|
B ------------------------------------------------------------------|

                                                                     X2

G ------------------------------------------------------------------|
D ------------------------------------------------------------------|
A --3--3--3--------3--3--3--------2--2--2--------2--2--2------------|
E -----------3--3-----------3--3-----------2--2------------2--2-----|
B ------------------------------------------------------------------|

G ------------------------------------------------------------------|
D ------------------------------------------------------------------|
A ------------------------------------------------------------------|
E --0---0-0-0--3--3---0---0-0-0--3--3----------0--------------------|
B ------------------------------------------------------------------|



END

www.myspace.com/jamieyawauk

www.myspace.com/youandwhatarmyuk
comments
We did not receive enough feedback on this tab! Please rate:
print report bad tab
1 2 3 4 5
1 comment total.
0 reply
cocacola86 wrote on August 17 2009, 06:36 pm

you play it wrong.

I want to post or [tab]
guest
You may want to rate the tab now too:
select rating
Please do not post tabs as comments. Select "correction" instead!