Oops, an error
Loading. Please wait.

You Me At Six - Save It For The Bedroom Bass Tab

version 1
version 1

Whole song

Interactive

1,532 views 1 this week
no commentswrite comment
1 2 3 4 5
please rate
add to favorites
launch autoscroll
font size
0
reset
guitar tuner
Autoscroll
slow
fast
+/-
esc
set tempo
stop
Help us to improve Ultimate-Guitar.com Take our survey!
×
Author
This is my first tab and it's not totally accurate, but I hope it will do. 


There's a guitar intro for four bars, then with drums for two more and then bass comes in

1st Verse:

Keep your lies to yourself...
G|-----------------------------------------------|
D|-----------------------------------------------|
A|-----------------------------------------------|
E|-\9(x32)--2(x32)--4(x32)--2(x24)--99-99-9------|    x2

1st Chorus:

So who's keeping score...
G|-----------------------------------------------|
D|-----------------------------------------------|
A|-----------------------------------------------|
E|-9(x32)--2(x32)--6(x32)--2(x32)----------------|

2nd Verse:

Go home and wash your jeans...
G|-----------------------------------------------|
D|-----------------------------------------------|
A|-----------------------------------------------|
E|--9(x16)--2(x16)--9(x16)--2(x16)---------------| 

G|-----------------------------------------------|
D|-----------------------------------------------|
A|-----------------------------------------------|
E|--4(x32)--2(x24)--99-99-9----------------------| 

2nd Chorus:

So who's keeping score...
G|-----------------------------------------------|
D|-----------------------------------------------|
A|-----------------------------------------------|
E|-9(x32)--2(x32)--6(x32)--2(x32)----------------| x2

Bridge:

And You whore...
G|-----------------------------------------------|
D|-----------------------------------------------|
A|-----------------------------------------------|
E|-9~-9~-2~-2~-----------------------------------| x3

No bass here, it's just drums and vocals for four bars

G|-----------------------------------------------|
D|-----------------------------------------------|
A|-----------------------------------------------|
E|-9(x32)--2(x32)---------------------------------| x4

Outro

G|-----------------------------------------------|
D|-----------------------------------------------|
A|-----------------------------------------------|
E|-9(x32)-999------------------------------------|




Suggest correction
What's this?
You can suggest a correction to this tab. Community and Mods will review your correction and vote to approve or reject it.
comments
We did not receive enough feedback on this tab! Please rate:
print report bad tab
1 2 3 4 5
guest
You may want to rate the tab now too:
select rating
Please do not post tabs as comments. Select "correction" instead!