Oops, an error
Loading. Please wait.

Younger Years - Ed Grimley Vs The Landshark Bass Tab

63 views 1 this week
no commentswrite comment
1 2 3 4 5
3 more votes to show rating
add to favorites
launch autoscroll
font size
0
reset
guitar tuner
Autoscroll
slow
fast
+/-
esc
set tempo
stop
Help us to improve Ultimate-Guitar.com Take our survey!
×
Author
Difficulty
-----------------------------------------------------------------------------
                             Younger Years - Ed Grimley Vs. The Landshark
-----------------------------------------------------------------------------

Tabbed By : Bob Marcellino
e-mail: carmellomangexp@gmail.com

INTRO:

G|---------------------------------------------------------------------------|
D|---------------------------------------------------------------------------|
A|--------------------------------------------5-3-5-3------------------------|
E|---------------------------------------------------------------------------|

G|---------------------------------------------------------------------------|
D|---------------------------------------------------------------------------|
A|--------------------------------------------5-3-5-3------------------------|
E|----0--0--0-0-0--0-0-0--0--2--3--3-3--3-3-3--------------------------------|

G|---------------------------------------------------------------------------|
D|---------------------------------------------------------------------------|
A|--------------------------------------------5-3-5-7------------------------|
E|----0--0--0-0-0--0-0-0--0--2--3--3-3--3-3-3--------------------------------|

VERSE 1:

G|---------------------------------------------------------------------------|
D|---------------------------------------------------------------------------|
A|---------------------------------------------------------------------------|
E|----0-0--0-0-0--0-0-0--0-0-2--2-2-3--3-3-3--3-3-3--3-3-3-------------------|

G|---------------------------------------------------------------------------|
D|---------------------------------------------------------------------------|
A|------5-5--5-5-5--5-5-5--5-5-----------------------------------------------|
E|----3------------------------5-7-7--7-7-7--7-7-7--7-7-7--7-\---------------|

CHORUS:

G|---------------------------------------------------------------------------|
D|---------------------------------------------------------------------------|
A|-------------3----------0--------------------------------------------------|
E|----5--5-5-5---3--3-3-3---0--0-0-0-0-0-0-0-000-0-0-0-0-0-0-0---------------|

G|---------------------------------------------------------------------------|
D|---------------------------------------------------------------------------|
A|-------------3----------0--------------------------------------------------|
E|----5--5-5-5---3--3-3-3----------------------------------------------------|

BRIDGE: (ring out)

G|---------------------------------------------------------------------------|
D|---------------------------------------------------------------------------|
A|-----------------------------------------------------5-3-5-3---------------|
E|----0-------2-3----------2-0----------2-3----------------------------------|

VERSE 2:

G|---------------------------------------------------------------------------|
D|---------------------------------------------------------------------------|
A|---------------------------------------------------------------------------|
E|----0-0--0-0-0--0-0-0--0-0-2--2-2-3--3-3-3--3-3-3--3-3-3-------------------|

G|---------------------------------------------------------------------------|
D|---------------------------------------------------------------------------|
A|------5-5--5-5-5--5-5-5--5-5-----------------------------------------------|
E|----3------------------------5-7-7--7-7-7--7-7-7--7-7-7--7-\---------------|

OUTRO:

G|---------------------------------------------------------------------------|
D|---------------------------------------------------------------------------|
A|---------------3-2-0-2-0--------------------------2-2-2-3-3-3--------------|
E|--------------------------3-0----------------------------------------------|

G|---------------------------------------------------------------------------|
D|---------------------------------------------------------------------------|
A|----7--7-7-7--7-5--5-5-5--5-2--2-2-2--2-3-2-0-2-0--------------------------|
E|--------------------------------------------------3------------------------|

G|---------------------------------------------------------------------------|
D|---------------------------------------------------------------------------|
A|----7--7-7-7--7-5--5-5-5--5-2--2-2-2--2-3-2-0-2-0--------------------------|
E|--------------------------------------------------3----0-------------------|


| /  slide up
| \  slide down
| h  hammer-on
| p  pull-off
| ~  vibrato
| +  harmonic
| x  Mute note
===============================================================================
Suggest correction
Give kudos to tab author, rate the tab!
1 2 3 4 5
comments
print report bad tab
guest
You may want to rate the tab now too:
select rating
Wanna post a correction for this tab? Suggest correction